คอร์ดเพลง เลิก - แมด แพ็ค อิท (Mad Pack It)

Version 1
แกะโดย เป้ เด็กนวล
เมื่อ 4 ม.ค.2548,16:49น.
ดู 1125 ครั้ง
intro  เพื่อนผมสอนมาครับ

จับคอร์ดเนี่ย
1------------
2---3--------
3---2--------
4--------------
5--------------
6---6----------

เเล้วเกาตามเนี่ย

1-------0--------------------------------ต----0
2-----3----------------------------------อ-------2
3---2-----2----2-----------------------น--3
4---------------------------------------- จ
5-----------------------------------------บ
6-3------------------------- ไปแบบเนี่ย 3-4 รอบมั้ง

ขอไห้รู้เรื่องด้วยน่ะเขียน Tab ไม่ค่อยเก่ง

คอร์ดเพลง เลิก

ความคิดเห็นเกี่ยวกับคอร์ดนี้

เวอร์ชั่นทั้งหมดของคอร์ดเพลงนี้

เนื้อเพลง เลิก - แมด แพ็ค อิท (Mad Pack It)

อยากได้ คอร์ด เพลงนี้อ่ะคับ นะ ช่วยหน่อยคับ ที่ร้องว่า เลิกกับมันเสียที เสียที อยู่กับมันไม่เห็นมีอะไรดี
อย่ามองมาที่ฉันสิ ฉันสิ อยากจะได้เธอคนนี้

Cover เพลงเลิก


ยังไม่มี Cover เพลงนี้

[ ช่วยกันแบ่งปันคลิปเพลงที่คุณเล่นเอง ]

ฟังเพลง เลิก