คอร์ดเพลง เหลวแหลก - ไฮเปอร์ (Hyper)

Version 7
แกะโดย ไก่ มือกีตาร์จากสามเสน2
เมื่อ 12 ส.ค.2547,19:51น.
ดู 414 ครั้ง
1)-------------------------------
2)--------------------8---------
3)---5-5-7---------------------
4)------------5--5---------------
5)--------------------------------
6)---------------------------------


1)------------------------------------------------------------------------------------------------------
2)---/12-12-13-12--13-------------------------------------------------------------------------
3)----------------------------12---10-9-10-10/12--12*----9-10/12-12-------------------
4)-----------------------------------------------------------------------------------10-10---------
5)-----------------------------------------------------------------------------------------------------
6)----------------------------------------------------------------------------------------------------


1)------------------------------------------------------------------12-13--10*--------------
2)-----------------------------------------------------------13-------------------------------
3)---12-12--------------------------12----9-10-12--9-----9----------------------------
4)-----------10-10---12-11*-10-----------------------------------------------------------
5)----------------------------------------------------------------------------------------------
6)---------------------------------------------------------------------------------------------

โซโลนะคับ
((อัพเดทคอร์ดกีต้าร์))
คอร์ดเพลง เหลวแหลก

ความคิดเห็นเกี่ยวกับคอร์ดนี้

เวอร์ชั่นทั้งหมดของคอร์ดเพลงนี้

คอร์ดเพลง เหลวแหลก

19 | 3
โดย กาละแม
เมื่อ 15 ปีที่แล้ว

คอร์ดเพลง เหลวแหลก

0 | 0
โดย -
เมื่อ 12 ปีที่แล้ว

คอร์ดเพลง เหลวแหลก

0 | 0
โดย ปอเนาะ_โมท บางทราย
เมื่อ 14 ปีที่แล้ว

คอร์ดเพลง เหลวแหลก

0 | 0
โดย โก้
เมื่อ 14 ปีที่แล้ว

คอร์ดเพลง เหลวแหลก

0 | 0
โดย อ๊อฟบูม
เมื่อ 14 ปีที่แล้ว

คอร์ดเพลง เหลวแหลก

0 | 0
โดย kjhk
เมื่อ 15 ปีที่แล้ว

คอร์ดเพลง เหลวแหลก

0 | 0
โดย ไก่ มือกีตาร์จากสามเสน2
เมื่อ 15 ปีที่แล้ว

คอร์ดเพลง เหลวแหลก

0 | 0
โดย ไก่ มือกีตาร์จากสามเสน2
เมื่อ 15 ปีที่แล้ว

คอร์ดเพลง เหลวแหลก

0 | 0
โดย ไก่
เมื่อ 15 ปีที่แล้ว

คอร์ดเพลง เหลวแหลก

0 | 0
โดย kaiศรีสง
เมื่อ 15 ปีที่แล้ว

คอร์ดเพลง เหลวแหลก

0 | 0
โดย กาละแม
เมื่อ 15 ปีที่แล้ว

คอร์ดเพลง เหลวแหลก

0 | 0
โดย กาละแม
เมื่อ 15 ปีที่แล้ว

เนื้อเพลง เหลวแหลก - ไฮเปอร์ (Hyper)

เหลวแหลก

rtist : ไฮเปอร์ (Hyper)

Intro :



[1] รู้ว่าเธอไม่เข้าใจ ว่าทำไมต้องเฉยชา


ทั้งที่เธอทุ่มเทให้ฉัน…ทั้งใจ


ก็ฉันยังกลัว ไม่กล้าเอ่ยคำบอกรักไป


ถึงแม้ว่าใจจะมีแต่เธอเสมอมา


เพราะมีบางอย่าง ที่ค้างคาอยู่ในใจ


มันคืออดีต ที่ยากเกินกว่าใจฉันจะลบเลือน


[] ถ้าฉันเคยเหลวแหลก แล้วเธอจะยังรักไหม


ถ้าฉันเคยเป็นของใคร แล้วเธอรับได้หรือเปล่า


ถ้าหัวใจที่ให้เธอ…ดวงนี้ ยังมีรอยแผลเก่า


อยากรู้ว่าเธอจะรักกันอีกไหม

Insru :


[] ฉันต้องทนตั้งเท่าไหร่ เพื่อให้ใจที่รักเธอ


ซ่อนอาการที่จะเปิดเผยรักไป


ก็คิดว่าฉันไม่คู่ควรเธอสักเท่าไร


เพราะรู้ว่าใจมันคงไม่มีคุณค่าพอ

Repeat ,[]

Solo :


Repeat []

Outro :

แกะเอง ไม่เหมือนให้ฟ้าผ่าหัวหมาเลย

Cover เพลงเหลวแหลก


ยังไม่มี Cover เพลงนี้

[ ช่วยกันแบ่งปันคลิปเพลงที่คุณเล่นเอง ]

ฟังเพลง เหลวแหลก

รักแท้ในคืนหลอกลวง - ไฮเปอร์ (Hyper)
เมื่อ 15 ปีที่แล้ว
ค้นพบคอร์ด 7 เวอร์ชั่น
วิทลัยหลายใจ - วิด ไฮเปอร์ (Hyper)
เมื่อ 12 ปีที่แล้ว
ค้นพบคอร์ด 11 เวอร์ชั่น
ข้ารักเอ็ง - ไฮเปอร์ (Hyper)
เมื่อ 14 ปีที่แล้ว
ค้นพบคอร์ด 9 เวอร์ชั่น
เหลวแหลก - ไฮเปอร์ (Hyper)
เมื่อ 15 ปีที่แล้ว
ค้นพบคอร์ด 14 เวอร์ชั่น
นางฟ้าคืนเดียว - ไฮเปอร์ (Hyper)
เมื่อ 12 ปีที่แล้ว
ค้นพบคอร์ด 7 เวอร์ชั่น
วิทยาลัยหลายใจ - ไฮเปอร์ (Hyper)
เมื่อ 12 ปีที่แล้ว
ค้นพบคอร์ด 13 เวอร์ชั่น
อ้อมกอดที่เคยถูกใช้ - ไฮเปอร์ (Hyper)
เมื่อ 11 ปีที่แล้ว
ค้นพบคอร์ด 30 เวอร์ชั่น
มักง่าย หลายใจ หลอกลวง - วิด ไฮเปอร์ (Hyper)
เมื่อ 10 ปีที่แล้ว
ค้นพบคอร์ด 2 เวอร์ชั่น
วิท ลัย หลายใจ - ไฮเปอร์ (HypeR)
เมื่อ 12 ปีที่แล้ว
ค้นพบคอร์ด 5 เวอร์ชั่น
รักฉันเลิกกันดีกว่า - วิด ไฮเปอร์ (Hyper)
เมื่อ 11 ปีที่แล้ว
ค้นพบคอร์ด 1 เวอร์ชั่น
ขวากหนาม - ไฮเปอร์ (Hyper)
เมื่อ 16 ปีที่แล้ว
ค้นพบคอร์ด 4 เวอร์ชั่น
ไม่มั่วแต่ทั่วถึง - วิด ไฮเปอร์ (Hyper)
เมื่อ 8 ปีที่แล้ว
ค้นพบคอร์ด 2 เวอร์ชั่น
ใส่ร้ายป้ายสี - ไฮเปอร์ (Hyper)
เมื่อ 15 ปีที่แล้ว
ค้นพบคอร์ด 20 เวอร์ชั่น
หลอกเพราะรัก - ไฮเปอร์ (Hyper)
เมื่อ 14 ปีที่แล้ว
ค้นพบคอร์ด 10 เวอร์ชั่น
เธอง่ายเอง - ไฮเปอร์ (Hyper)
เมื่อ 15 ปีที่แล้ว
ค้นพบคอร์ด 3 เวอร์ชั่น
รู้เห็นเป็นใจ - ไฮเปอร์ (Hyper)
เมื่อ 16 ปีที่แล้ว
ค้นพบคอร์ด 4 เวอร์ชั่น
รักเเท้ในคื่นหลวกหลง - ไฮเปอร์ (Hyper)
เมื่อ 14 ปีที่แล้ว
ยังไม่มีคอร์ด
ผู้ร้ายคนใหม่ - ไฮเปอร์ (Hyper)
เมื่อ 13 ปีที่แล้ว
ค้นพบคอร์ด 2 เวอร์ชั่น
คืนก่อน - ไฮเปอร์(Hyper)
เมื่อ 11 ปีที่แล้ว
ค้นพบคอร์ด 1 เวอร์ชั่น
เชื่อใจ - ไฮเปอร์ (Hyper)
เมื่อ 14 ปีที่แล้ว
ค้นพบคอร์ด 4 เวอร์ชั่น
MusicATM.com, Copyright (c) 2003 - 2017. Allright reserved.