คอร์ดเพลง เอาอะไรมาแลกก็ไม่ยอม - โปเตโต้ (Potato)

Version 1
แกะโดย Mix
เมื่อ 17 เม.ย.2550,21:24น.
ดู 45963 ครั้ง
      F#m   B7
ใครจะคอยแข่งกันไป ไหน ปล่อยตามใจเขา
E C#m F#m B7
ขอแต่มีแต่เธอแต่เธอ ก็พอ ใจ
E C#m F#m B7
+++แหละทองอะไร ก็ไม่ เอา
E G#m C#m F#m B7
มีแต่เธอก็ลืม ความเหงา นั้นก็พอแล้ว

E A B E
* สิ่งใด ดูเหมือน มีค่า ค้นไขว่ และคว้า กันไป
A G#m D B7
ไม่ขอ ยึกยื้อให้เหนื่อยใจ ฉันขอ เธอคนเดียว

F#m B7 G#m C#m
** โลกกลมๆจะเป็นของใครไม่เคย จะข้อง เกี่ยว
F#m B7 E
มีแต่เธอผู้เดียว ก็สุข ใจ
F#m B7 G#m C#m
เธอให้ใจจริง แท้ และมี ความหมาย
F#m B7 E
เอาอะไรมาแลกก็ไม่ยอม

Instru: E/A/E C#m/C#m-D B7/(2times)
Solo: E/A/C#m B/A/E/G#m/A/B/(E)

(ซ้ำ * , ** )

F#m B7 G#m C#m
เธอให้ใจจริง แท้ และมี ความรักให้
F#m B7 E
เอาอะไรมาแลกก็ไม่ยอม

Outtro :E/A/E C#m/C#m-D B7/(2times)

-gt;-gt;-gt; -gt;Tap-lt; -lt;-lt;-lt;

-gt;-gt;-gt;Intro-lt;-lt;-lt;
-gt;Guitar Chorus-lt;

Power Cord -gt;-gt;-gt; /E/A/E C#m/C#m-D B/ (2 times)
/E/

E | A | E C#m | C#m-D B
4|-----2-x-x-2-x-x-2------7-x-x-7-x-x-7----2-x-2-6-x-6----s-7-6--4----|
5|-----2-x-x-2-x-x-2------7-x-x-7-x-x-7----2-x-2-4-x-4----s-5-4--2----|
6|-----0-x-x-0-x-x-0------5-x-x-5-x-x-5----0-x-0-4-x-4----s-5-4--2----|

-gt;Guitar Solo-lt;

ขึ้นตอนอินโทรรอบสอง
E | A | E C#m | C#m-D B | E
1|----------7---------------------7-----------------7---------------5.4------------------|
2|-------5--------5--------4p5-------5--------5---------5--------------5-5s7--5---|
3|----4--------4--------4-----------4--------4---------4-------------------------------|

-gt;-gt;-gt;Pre-Chorus-lt;-lt;-lt; (ท่อนก่อนฮุคนั่นแหละ)
-gt;Guitar Solo-lt;

v
สิ่งใด...
1|-------------7----------------------7-----------------7-------------------------------|
2|-------4p5--------5--------4p5-------5------4p5---------5--5s7.5-4-4p5--|
3|----4----------4--------4------------4--------4--------4---------------------------|

v
ไม่ขอ...
1|-------------7----------------------7-----------5.4-----------------------|
2|-------4p5--------5--------4p5-------5----------7-4p5-5s7--------|
3|----4---------4--------4-------------4-------------------------------------|

-gt;-gt;-gt;Solo-lt;-lt;-lt;
-gt;Guitar Chorus-lt;

E | A | E C#m | C#m-D B
4|-----2-x-x-2-x-x-2------7-x-x-7-x-x-7----2-x-2-6-x-6----s-7-6--4----|
5|-----2-x-x-2-x-x-2------7-x-x-7-x-x-7----2-x-2-4-x-4----s-5-4--2----|
6|-----0-x-x-0-x-x-0------5-x-x-5-x-x-5----0-x-0-4-x-4----s-5-4--2----|

4|----6-6p7-7s9s6-6s11-9-7-6s7--7-7-6-6--------------------------------|
6|-------------------------------------------------------9-9-7-7-9s11-9-9-9-9--|

ตีคอร์ดธรรมดา-gt;-gt;-gt;-gt;E/A/C#m B/A/E/G#m/A/B/(E)

-gt;Guitar Solo-lt;

ขึ้นพร้อม Guitar Chorus เริ่มโซโล่
1|-------------7----------------------7-----------------7-----------5.4----------------------|
2|-------4p5--------5--------4p5-------5----4p5---------5---------5-5s7----(5)-----|
3|----4----------4--------4------------4--------4---------4----------------------------------|

1|-----------------------------12----14^^-14-12p14-12-11p12------------------
2|---5-7-7s9-7-9-10-12----12-------------------------------------12p14-12----

1|--------------12-------------------7------------------------------------------
2|---10-9-10----5p7-5---5-4-5--2-2-0------0-1-4-4s5--7-7s10-9--
3|----------------------------------------------1p2------------------------------

(ไม่แน่ใจฟังไม่ทัไม่ได้ใช้โปรแยกเสียง)
2|---5.7.9.10.12----อารายไม่รุใครหลงมาเจอแกะที

-gt;-gt;-gt;Outtro-lt;-lt;-lt;
-gt;Guitar Chorus-lt;

Power Cord -gt;-gt;-gt; /E/A/E C#m/C#m-D B/ (2 times)
/E/

E | A | E C#m | C#m-D B
4|-----2-x-x-2-x-x-2------7-x-x-7-x-x-7----2-x-2-6-x-6----s-7-6--4----|
5|-----2-x-x-2-x-x-2------7-x-x-7-x-x-7----2-x-2-4-x-4----s-5-4--2----|
6|-----0-x-x-0-x-x-0------5-x-x-5-x-x-5----0-x-0-4-x-4----s-5-4--2----|

-gt;Guitar Solo-lt;

1|-------------7----------------------7-----------------7-----------5.4----------------------|
2|-------4p5--------5--------4p5-------5----4p5---------5---------5-5s7-------------|
3|----4---------4--------4-------------4--------4---------4----------------------------------|

1|-------------7----------------------7-----------------7-----------5.4----------------------|
2|-------4p5--------5--------4p5-------5----4p5---------5---------5-5s7------5-----|
3|---------------4--------4------------4-------4---------4-----------------------------------|

ส่วนเบส เพลงนี้ก้อมี แต่งงคับ กีร์ต้า 2 ตัวมันตีกัน

พอดีมีคนเมลล์มาไม่รุว่าใคร -*- บอกว่าให้ขึ้นบอร์ดใหม่เลย
ก้อจัดตามเค้าขอแล้วกัน
อายนะเปงหัวบอร์ดอ่ะ -*- คราวหลังอย่า
ยิ่งเพลงนี้เก่าสุด ๆ ด้วย
คอร์ดเพลง เอาอะไรมาแลกก็ไม่ยอม

ความคิดเห็นเกี่ยวกับคอร์ดนี้

เนื้อเพลง เอาอะไรมาแลกก็ไม่ยอม - โปเตโต้ (Potato)


ใครจะคอยแข่งกันไป ไหน ปล่อยตามใจเขา

ขอแต่มีแต่เธอแต่เธอ ก็พอ ใจ

+++แหละทองอะไร ก็ไม่ เอา

มีแต่เธอก็ลืม ความเหงา นั้นก็พอแล้ว


* สิ่งใด ดูเหมือน มีค่า ค้นไขว่ และคว้า กันไป

ไม่ขอ ยึกยื้อให้เหนื่อยใจ ฉันขอ เธอคนเดียว


** โลกกลมๆจะเป็นของใครไม่เคย จะข้อง เกี่ยว

มีแต่เธอผู้เดียว ก็สุข ใจ

เธอให้ใจจริง แท้ และมี ความหมาย

เอาอะไรมาแลกก็ไม่ยอม

Instru:
Solo:

(ซ้ำ * , ** )


เธอให้ใจจริง แท้ และมี ความรักให้

เอาอะไรมาแลกก็ไม่ยอม

Outtro :

gt;gt;gt; gt;Taplt; lt;lt;lt;

gt;gt;gt;Introlt;lt;lt;
gt;tar horuslt;

Power ord gt;gt;gt;


| | |
4|xxxxxxxxxxs|
5|xxxxxxxxxxs|
6|xxxxxxxxxxs|

gt;tar Sololt;

ขึ้นตอนอินโทรรอบสอง
| | | |
1|5.|
2|4p5s|
3||

gt;gt;gt;Prehoruslt;lt;lt; (ท่อนก่อนฮุคนั่นแหละ)
gt;tar Sololt;

v
สิ่งใด...
1||
2|4p4p4p5s7.4p|
3||

v
ไม่ขอ...
1|5.|
2|4p4p4p5s|
3||

gt;gt;gt;Sololt;lt;lt;
gt;tar horuslt;

| | |
4|xxxxxxxxxxs|
5|xxxxxxxxxxs|
6|xxxxxxxxxxs|

4|6p7s9s6s6s|
6|9s|

ตีคอร์ดธรรมดาgt;gt;gt;gt;

gt;tar Sololt;

ขึ้นพร้อม tar horus เริ่มโซโล่
1|5.|
2|4p4p4p5s(5)|
3||

1|14^^12p11p
2|7s12p

1|
2|5p4s7s
3|1p

(ไม่แน่ใจฟังไม่ทัไม่ได้ใช้โปรแยกเสียง)
2|5.7.9.10.อารายไม่รุใครหลงมาเจอแกะที

gt;gt;gt;Outtrolt;lt;lt;
gt;tar horuslt;

Power ord gt;gt;gt;


| | |
4|xxxxxxxxxxs|
5|xxxxxxxxxxs|
6|xxxxxxxxxxs|

gt;tar Sololt;

1|5.|
2|4p4p4p5s|
3||

1|5.|
2|4p4p4p5s|
3||

ส่วนเบส เพลงนี้ก้อมี แต่งงคับ กีร์ต้า 2 ตัวมันตีกัน

พอดีมีคนเมลล์มาไม่รุว่าใคร * บอกว่าให้ขึ้นบอร์ดใหม่เลย
ก้อจัดตามเค้าขอแล้วกัน
อายนะเปงหัวบอร์ดอ่ะ * คราวหลังอย่า
ยิ่งเพลงนี้เก่าสุด ๆ ด้วย

Cover เพลงเอาอะไรมาแลกก็ไม่ยอม


ยังไม่มี Cover เพลงนี้

[ ช่วยกันแบ่งปันคลิปเพลงที่คุณเล่นเอง ]

ฟังเพลง เอาอะไรมาแลกก็ไม่ยอม

เธอยัง - โปเตโต้ (Potato)
เมื่อ 8 ปีที่แล้ว
ค้นพบคอร์ด 7 เวอร์ชั่น
แพ้ใจ - โปเตโต้ (POTATO)
เมื่อ 7 ปีที่แล้ว
ค้นพบคอร์ด 4 เวอร์ชั่น
แชร์ (Share) - โปเตโต้ (Potato)
เมื่อ 10 ปีที่แล้ว
ค้นพบคอร์ด 1 เวอร์ชั่น
ไม่ให้เธอไป - โปเตโต้ (Potato)
เมื่อ 15 ปีที่แล้ว
ค้นพบคอร์ด 28 เวอร์ชั่น
ปากดี - โปเตโต้ (Potato)
เมื่อ 13 ปีที่แล้ว
ค้นพบคอร์ด 41 เวอร์ชั่น
รักเธอไปทุกวัน - โปเตโต้ (Potato)
เมื่อ 11 ปีที่แล้ว
ค้นพบคอร์ด 13 เวอร์ชั่น
ยิ่งใกล้ยิ่งเจ็บ - โปเตโต้ (Potato)
เมื่อ 14 ปีที่แล้ว
ค้นพบคอร์ด 6 เวอร์ชั่น
ขอบคุณที่รักกัน - โปเตโต้ (Potato)
เมื่อ 13 ปีที่แล้ว
ค้นพบคอร์ด 26 เวอร์ชั่น
ไม่รู้จะอธิบายยังไง - โปเตโต้ (POtATo)
เมื่อ 8 ปีที่แล้ว
ค้นพบคอร์ด 1 เวอร์ชั่น
อารมณ์สีเทา - โปเตโต้(Potato)
เมื่อ 11 ปีที่แล้ว
ค้นพบคอร์ด 10 เวอร์ชั่น
หวังดีเสมอ - โปเตโต้ (Potato)
เมื่อ 13 ปีที่แล้ว
ค้นพบคอร์ด 10 เวอร์ชั่น
ภาษากาย - โปเตโต้ (Potato)
เมื่อ 13 ปีที่แล้ว
ค้นพบคอร์ด 17 เวอร์ชั่น
กล้าพอไหม - โปเตโต้ (Potato)
เมื่อ 2020 ปีที่แล้ว
ค้นพบคอร์ด 20 เวอร์ชั่น
เพียงพอ - โปเตโต้ (Potato)
เมื่อ 12 ปีที่แล้ว
ค้นพบคอร์ด 34 เวอร์ชั่น
ขอบคุณที่รักกัน(Acoustic) - โปเตโต้ (Potato)
เมื่อ 13 ปีที่แล้ว
ค้นพบคอร์ด 17 เวอร์ชั่น
นี่แหละความเสียใจ - โปเตโต้ (Potato)
เมื่อ 12 ปีที่แล้ว
ค้นพบคอร์ด 39 เวอร์ชั่น
ชีวิตที่ขาดเธอ - โปเตโต้(potato)
เมื่อ 12 ปีที่แล้ว
ค้นพบคอร์ด 10 เวอร์ชั่น
ฉันคิดถึงเธอ - โปเตโต้ (POTATO)
เมื่อ 8 ปีที่แล้ว
ค้นพบคอร์ด 1 เวอร์ชั่น
คำตอบของหัวใจ - โปเตโต้ (Potato)
เมื่อ 11 ปีที่แล้ว
ค้นพบคอร์ด 21 เวอร์ชั่น
ทนพิษบาดแผลไม่ไหว - โปเตโต้ (Potato)
เมื่อ 10 ปีที่แล้ว
ค้นพบคอร์ด 6 เวอร์ชั่น