คอร์ดเพลง แก้วตาขาร็อค - ป้าง นครินทร์ กิ่งศักดิ์

Version 2
แกะโดย อ๊อฟ
เมื่อ 12 มิ.ย.2548,01:22น.
ดู 1006 ครั้ง
intro  1/-10p13-13-13-13-13-------15-15-15-15-15-----------------------

1/-10p13-10--------10------------------------------------------------------
2/----------------13--------13-------10-10-10-10-10--------------------

2/------------------------------------------------10----------------------------
3/-------------------------------10-----12------------12-----10----10/7--
4/-12-12------10-----12-----------------------------------------------------

1/-10p13-10
2/----------------13---10-------------------------------------------------------------10-----------------------------------------------------------------------------------------------------
3/----------------------------12---10-----------------------------------------10-12----12-10-----------------10--10p12-9---------------9-7--------
4/-------------------------------------- 12-10-12------ 12-12-----10-12-------------------12--10--12-------------------12-10-12----------------------------

2/-10-10----------------------------------
3/-----------12-10-9----------------------
4/-----------------------12-----------------

คอร์ดเพลง แก้วตาขาร็อค

ความคิดเห็นเกี่ยวกับคอร์ดนี้

เนื้อเพลง แก้วตาขาร็อค - ป้าง นครินทร์ กิ่งศักดิ์

แก้วตาขาร็อค…… ป้างนครินทร์
INTRO :

เจ้าทิ้งพี่ไป ไม่ลาสักคำ ทิ้งพี่ชาวนาตัวดำ ไปทำงานเมืองบางกอก

เบื่อคนทางนี้ ไปคลั่งดนตรีเพลงร็อค เพลงลูกทุ่งมันบ้านนอก เจ้าบอกว่าเชยสิ้นดี

แว่วๆ ข่าวมาว่าเจ้าหลงไฟ แสงสีและศิวิไลซ์ เจ้าไปเที่ยวแทบทุกที่

เข้าผับเข้าบาร์ งานการก็ลาทั้งปี ไปหลงดูวงดนตรี เล่นเพลงร็อคที่ชอบใจ

ไปยืนกรีดร้อง ไปเฝ้ามองที่หน้าเวที วงร็อคหน้าตาดีๆ แบบนี้ที่เธอคลั่งไคล้

ฟังคำพี่หนา พี่เตือนแก้วตาจากใจ พวกขาร็อคอันตราย ส่วนใหญ่มีเมียหลายคน

* กลับบ้านเถิดหนา ท้องนายังคอย พ่อแม่นั่งตาละห้อย รอคอยด้วยความหมองหม่น

พี่เป็นชาวนา จะขอตั้งตาฝึกฝน อยากร้องเพลงร็อคด้วยคน เผื่อหน้ามนจะหวน….กลับมา
SOLO :
( ซ้ำ * )
SOLO :

Cover เพลงแก้วตาขาร็อค


ยังไม่มี Cover เพลงนี้

[ ช่วยกันแบ่งปันคลิปเพลงที่คุณเล่นเอง ]

ฟังเพลง แก้วตาขาร็อค

ปอดแหก - ป้าง นครินทร์ กิ่งศักดิ์
เมื่อ 9 ปีที่แล้ว
ค้นพบคอร์ด 4 เวอร์ชั่น
คบไม่ได้ - ป้าง นครินทร์ กิ่งศักดิ์
เมื่อ 15 ปีที่แล้ว
ค้นพบคอร์ด 11 เวอร์ชั่น
หนังสือรุ่น - ป้าง นครินทร์ กิ่งศักดิ์
เมื่อ 14 ปีที่แล้ว
ค้นพบคอร์ด 13 เวอร์ชั่น
อากาศ - ป้าง นครินทร์ กิ่งศักดิ์
เมื่อ 15 ปีที่แล้ว
ค้นพบคอร์ด 8 เวอร์ชั่น
ทำอะไรสักอย่าง - ป้าง นครินทร์ กิ่งศักดิ์
เมื่อ 15 ปีที่แล้ว
ค้นพบคอร์ด 9 เวอร์ชั่น
เพราะอะไร - ป้าง นครินทร์ กิ่งศักดิ์
เมื่อ 15 ปีที่แล้ว
ค้นพบคอร์ด 6 เวอร์ชั่น
คิดอะไรอยู่ - ป้าง นครินทร์ กิ่งศักดิ์
เมื่อ 12 ปีที่แล้ว
ค้นพบคอร์ด 7 เวอร์ชั่น
แก้วตาขาร็อค - ป้าง นครินทร์ กิ่งศักดิ์
เมื่อ 14 ปีที่แล้ว
ค้นพบคอร์ด 8 เวอร์ชั่น
ทำอะไรซักอย่าง - ป้าง นครินทร์ กิ่งศักดิ์
เมื่อ 14 ปีที่แล้ว
ค้นพบคอร์ด 10 เวอร์ชั่น
เอื้อมไม่ถึง - ป้าง นครินทร์ กิ่งศักดิ์
เมื่อ 14 ปีที่แล้ว
ค้นพบคอร์ด 8 เวอร์ชั่น
ผู้ชายร้องไห้ - ป้าง นครินทร์ กิ่งศักดิ์
เมื่อ 14 ปีที่แล้ว
ค้นพบคอร์ด 4 เวอร์ชั่น
เจ็บปวดที่งดงาม - ป้าง นครินทร์
เมื่อ 8 ปีที่แล้ว
ค้นพบคอร์ด 1 เวอร์ชั่น
ซ้ำ - ป้าง
เมื่อ 12 ปีที่แล้ว
ค้นพบคอร์ด 13 เวอร์ชั่น
คนมันไม่ใช่ - ป้าง นครินทร์ กิ่งศักดิ์
เมื่อ 12 ปีที่แล้ว
ค้นพบคอร์ด 6 เวอร์ชั่น
เธอมีจริง - ป้าง นครินทร์ กิ่งศักดิ์
เมื่อ 15 ปีที่แล้ว
ค้นพบคอร์ด 5 เวอร์ชั่น
แมน - ป้าง นครินทร์ กิ่งศักดิ์
เมื่อ 15 ปีที่แล้ว
ค้นพบคอร์ด 23 เวอร์ชั่น
ปมด้อยของฉัน - ป้าง นครินทร์
เมื่อ 10 ปีที่แล้ว
ค้นพบคอร์ด 1 เวอร์ชั่น
คนฉลาด - ป้าง นครินทร์ กิ่งศักดิ์
เมื่อ 14 ปีที่แล้ว
ค้นพบคอร์ด 4 เวอร์ชั่น
ฉันอยู่คนเดียวได้ - ป้าง นครินทร์ กิ่งศักดิ์
เมื่อ 12 ปีที่แล้ว
ค้นพบคอร์ด 6 เวอร์ชั่น
คู่ชีวิต - ป้าง นครินทร์
เมื่อ 10 ปีที่แล้ว
ค้นพบคอร์ด 1 เวอร์ชั่น