คอร์ดเพลง แฟนเก่า - ลาบานูน (Labanoon)

Version 8
แกะโดย itachi
เมื่อ 12 ก.ย.2549,05:13น.
ดู 1333 ครั้ง
Solo


6>----------------------------------------------------------------------------------------------------------
5>----------------------------------------------------------------------------------------------------------
4>----------------------------------------------------------------------------------11-9-9h11------9--
3>----9-9-11-13------9-9---13-----9-9-11-13-----9h11-9---13-11-9----------------9------9
2>----------------------------12------------------------------------12-----------------------------------
1>-----------------------------------------------------------------------------------------------------------


6>----------------------------------------------------------------------------------------------------------
5>----------------------------------------------------------------------------------------------------------
4>---/-7---4-6-------------------------------------------------------------------------------------------
3>--------------------------/-9h11-----------------------------------------------------------------------
2>------------------------------------9s10-12--12-----------------------------------------------------
1>----------------------------------------------------12-12--12-11--11h12-11-15^15^15------



6>-----------------------------------------------------------------------------------------------------------
5>------------------------------------------------------------------------------------------------------------
4>---------------------------------------------------------------------------------16--/-14-16-18-19--
3>------------------------------------------16-16----14h16-14-13h14-13------------------------16
2>--------17-17--------16h17-16-14------------------------------------------------------------------
1>----19----------------------------------------------------------------------------------------------------



6>---------------------------------------------------------------------------|
5>---------------------------------------------------------------------------|
4>------18---14-16-18--------------------------------------------------|
3>-------------------------14-16-18--------------------------------------|
2>-------------------------------------16-17-19--------------------------|
1>--------------------------------------------------16-17-19^^---------|


ใช่ฉันหรือปล่าว กะลา
รักฝนที่สุดเลย
คอร์ดเพลง แฟนเก่า

ความคิดเห็นเกี่ยวกับคอร์ดนี้

เวอร์ชั่นทั้งหมดของคอร์ดเพลงนี้

คอร์ดเพลง แฟนเก่า

226 | 49
โดย เว็บมาสซาเตอร์
เมื่อ 16 ปีที่แล้ว

คอร์ดเพลง แฟนเก่า

6 | 0
โดย 555+
เมื่อ 13 ปีที่แล้ว

คอร์ดเพลง แฟนเก่า

2 | 0
โดย โทรุ ซาโจ้
เมื่อ 16 วันก่อน

คอร์ดเพลง แฟนเก่า

0 | 0
โดย รีเดอร์ รุ่งนะ
เมื่อ 12 วันก่อน

คอร์ดเพลง แฟนเก่า

0 | 0
โดย 9AIRRY
เมื่อ 2 เดือนที่แล้ว

คอร์ดเพลง แฟนเก่า

0 | 0
โดย Bird Wasan Jitrat
เมื่อ 3 เดือนที่แล้ว

คอร์ดเพลง แฟนเก่า

0 | 0
โดย โบ๊ท ส.ย.61
เมื่อ 11 ปีที่แล้ว

คอร์ดเพลง แฟนเก่า

0 | 0
โดย NaZe
เมื่อ 12 ปีที่แล้ว

คอร์ดเพลง แฟนเก่า

0 | 0
โดย สาวก LaBanooN
เมื่อ 12 ปีที่แล้ว

คอร์ดเพลง แฟนเก่า

0 | 0
โดย itachi
เมื่อ 13 ปีที่แล้ว

คอร์ดเพลง แฟนเก่า

0 | 0
โดย ...
เมื่อ 13 ปีที่แล้ว

คอร์ดเพลง แฟนเก่า

0 | 0
โดย เต้ Mr GALON...
เมื่อ 14 ปีที่แล้ว

คอร์ดเพลง แฟนเก่า

0 | 0
โดย โอF4เชียงราย
เมื่อ 15 ปีที่แล้ว

เนื้อเพลง แฟนเก่า - ลาบานูน (Labanoon)




เจอหน้าเธอกี่ครั้ง ฉันก็ยังต้องทน ทำเหมือนไม่มีอะไร ทั้งที่ฉันนั้นอยากขอร้อง

ให้เธอเปลี่ยนใจ ให้กลับมาเหมือนวันที่เราเคยรักกัน

มองหน้าเธอวันนี้ เธอช่างมีความสุข ไม่เหมือนตอนรักกับฉัน

เขาที่เป็นคนใหม่ คงเป็นผู้ชายในฝัน เมื่อหมดความสำคัญ ฉันคงต้องทำใจ


* แค่คนที่เธอหลงมา เผลอใจผูกพัน ฉันเป็นได้เพียงเท่านั้น

ไม่มีความหมาย คงต้องยอมรับ ทำอะไรไม่ได้


** อยากบอกว่ายังรัก ยังคิดถึงเธอ ทุกๆครั้งที่เจอ ฉันก็อยากให้เข้าใจ

แต่มันก็เท่านั้น ฉันรู่ว่าสายไป เพราะว่าถึงยังไง เธอก็คงเลือกเขา

ฉันคงเป็นได้แค่ แฟนเก่า ที่ต้องเจียมตัว

Instru : ( 2time )


( ซ้ำ * )


ฉันคงเป็นได้แค่ แฟนเก่า ที่ต้องเจียมตัว

ฉันคงเป็นได้แค่ แฟนเก่า ที่ยังรักเธอ

Cover เพลงแฟนเก่า


ยังไม่มี Cover เพลงนี้

[ ช่วยกันแบ่งปันคลิปเพลงที่คุณเล่นเอง ]

ฟังเพลง แฟนเก่า

แฟนเก่า - ลาบานูน (Labanoon)
เมื่อ 16 ปีที่แล้ว
ค้นพบคอร์ด 16 เวอร์ชั่น
เท่าเดิม - ลาบานูน (Labanoon)
เมื่อ 13 ปีที่แล้ว
ค้นพบคอร์ด 10 เวอร์ชั่น
คิดในใจ - ลาบานูน (Labanoon)
เมื่อ 2021 ปีที่แล้ว
ค้นพบคอร์ด 6 เวอร์ชั่น
รักแท้ - ลาบานูน (Labanoon)
เมื่อ 15 ปีที่แล้ว
ค้นพบคอร์ด 10 เวอร์ชั่น
ยาม - ลาบานูน (Labanoon)
เมื่อ 15 ปีที่แล้ว
ค้นพบคอร์ด 16 เวอร์ชั่น
เดาใจ - ลาบานูน Labanoon
เมื่อ 12 ปีที่แล้ว
ค้นพบคอร์ด 5 เวอร์ชั่น
อะไรก็ผิด - ลาบานูน (Labanoon)
เมื่อ 7 ปีที่แล้ว
ค้นพบคอร์ด 3 เวอร์ชั่น
191 - ลาบานูน (Labanoon)
เมื่อ 15 ปีที่แล้ว
ค้นพบคอร์ด 13 เวอร์ชั่น
ปฏิทิน - ลาบานูน (Labanoon)
เมื่อ 14 ปีที่แล้ว
ค้นพบคอร์ด 10 เวอร์ชั่น
บังอาจรักเธอ - ลาบานูน (Labanoon)
เมื่อ 15 ปีที่แล้ว
ค้นพบคอร์ด 8 เวอร์ชั่น
คนตัวดำ - ลาบานูน (Labanoon)
เมื่อ 12 ปีที่แล้ว
ค้นพบคอร์ด 7 เวอร์ชั่น
แอบรัก - ลาบานูน (Labanoon)
เมื่อ 15 ปีที่แล้ว
ค้นพบคอร์ด 5 เวอร์ชั่น
เป็นตายร้ายดี - ลาบานูน (Labanoon)
เมื่อ 14 ปีที่แล้ว
ค้นพบคอร์ด 8 เวอร์ชั่น
คำต้องห้าม - ลาบานูน (Labanoon)
เมื่อ 12 ปีที่แล้ว
ค้นพบคอร์ด 30 เวอร์ชั่น
ใจง่าย - ลาบานูน (Labanoon)
เมื่อ 16 ปีที่แล้ว
ค้นพบคอร์ด 5 เวอร์ชั่น
ซื่อ - ลาบานูน (Labanoon)
เมื่อ 15 ปีที่แล้ว
ค้นพบคอร์ด 7 เวอร์ชั่น
หนักใจ - ลาบานูน (Labanoon)
เมื่อ 15 ปีที่แล้ว
ค้นพบคอร์ด 4 เวอร์ชั่น
ฝันหวาน - ลาบานูน (Labanoon)
เมื่อ 13 ปีที่แล้ว
ค้นพบคอร์ด 14 เวอร์ชั่น
อย่าลำบาก - ลาบานูน
เมื่อ 16 ปีที่แล้ว
ค้นพบคอร์ด 4 เวอร์ชั่น
ถูกทุกข้อ - ลาบานูน (Labanoon)
เมื่อ 15 ปีที่แล้ว
ค้นพบคอร์ด 6 เวอร์ชั่น

คอร์ดเพลงใหม่

31 | 1/0

กอดเสาเถียง - ปรีชา ปัดภัย

คอร์ดโดย สมัครฟรี ไม่เสียค่าใช้จ่าย
เมื่อ เมื่อวานนี้
19 | 0/0

จีบสาวฉาวเทือน - เจนนี่ - ลิลลี่ ได้หมดถ้าสดชื่น Feat.วู้ดดี้

คอร์ดโดย สมัครฟรี ไม่เสียค่าใช้จ่าย
เมื่อ เมื่อวานนี้
57 | 1/0

เจ็บหนักวิทยา - เบลล์ นิภาดา

คอร์ดโดย สมัครฟรี ไม่เสียค่าใช้จ่าย
เมื่อ 3 วันก่อน
58 | 0/0

ถ่าเจ้ากลับมา - ป๊อป นพรัตน์

คอร์ดโดย ศิริศักดิ์ ฝ่ายวงค์
เมื่อ 5 วันก่อน
147 | 0/0

Ver.2 มากกว่าฝูงหมา - กางเกง

คอร์ดโดย สไมล์ เดวิลล์ ปีศาจอารมณ์ดี
เมื่อ 8 วันก่อน
63 | 1/0

Ver.5 ล้า - อะเลิทร์(Alert)

คอร์ดโดย Naternet Bassist
เมื่อ 9 วันก่อน
109 | 0/0

Ver.2 ผีบ้าถามทาง - บิ๊กวัน กันทรลักษ์

คอร์ดโดย สไมล์ เดวิลล์ ปีศาจอารมณ์ดี
เมื่อ 9 วันก่อน