คอร์ดเพลง ใกล้ตา - แอมไฟน์

Version 2
แกะโดย ขั้นสูง (กลับมาแล้ว)
เมื่อ 19 ต.ค.2549,06:09น.
ดู 336 ครั้ง
intro
2)------------10--10(S)7--8--------------------------------
3)--(S)7-7---------------------7-----------------------------
4)----------------------------------9--7(S)5--9--7--7--5--

solo
2)---------------------------------------------7-8-7---7-10--12--8--8-15(3)-13(3)-12(3)-13(2)-8-
3)-------------------------------------------7--------7----------------------------------------------------------
4)--9-7-5--4-5-4---5------------5-7-9----------------------------------------------------------------------
5)-------------------5---7-5--5-6------------------------------------------------------------------------------

1)----15-15-15----------------------------------------------
2)--8--------------15-15-15--13-13-13--15-15--12--

outro
2)------------10--10(S)7--8----------------------------------
3)--(S)7-7---------------------7-------------------------------
4)----------------------------------9--7(S)5--9--10--9--5--
คอร์ดเพลง ใกล้ตา

ความคิดเห็นเกี่ยวกับคอร์ดนี้

เนื้อเพลง ใกล้ตา - แอมไฟน์

ฉันจะรออยู่ตรงนี้ และไม่คิดจะไปไหน แม้ว่าเธอจะมองข้ามใจที่มีให้กัน
*รู้ว่าไม่มีความหมายเป็นขนตาได้แค่นั้น อยู่ใกล้ตากว่าใคร แต่ไม่มีทางเห็นเลย
**เป็นได้แค่สิ่งที่ไม่มีวันมองเห็น
เป็นได้แค่สิ่งที่ไม่มีค่าใด
แต่ก็ยังดีที่ยังได้ใกล้เธอกว่าใคร
***ก็ไม่ได้รักเธอจนตาบอด ก็ไม่ได้หลงเธอจนฝันเฝื่อน
ฉันก็แค่เหมือนใครๆที่หวังจะมีรักซักครั้ง
และไม่ได้โง่ที่รอเธอตรงนี้ แต่ใจมันห้ามไม่เคยฟัง
จะแต่หวังจะมีซักครั้งที่เธอมองเห็นกัน

จะทำดีเผื่อเธอรู้ จะดูแลเผื่อเธอเห็น อยากจะเป็นคนในสายตาคงมีสักวัน

*/**/***

Solo

***

ก็แค่หวังจะมีซักครั้งได้อยู่ใน..สาย...........ตา


โดนมั่กๆ ใครว่างๆเขาคอร์ดมาลงให้ด้วยนะ

Cover เพลงใกล้ตา


ยังไม่มี Cover เพลงนี้

[ ช่วยกันแบ่งปันคลิปเพลงที่คุณเล่นเอง ]

ฟังเพลง ใกล้ตา

มารักทำไมตอนนี้ - แอมไฟน์
เมื่อ 13 ปีที่แล้ว
ค้นพบคอร์ด 12 เวอร์ชั่น
ขาดความอบอุ่น - แอมไฟน์ (Am fine)
เมื่อ 14 ปีที่แล้ว
ค้นพบคอร์ด 7 เวอร์ชั่น
ผู้หญิงใจง่าย - แอมไฟน์ (Am fine)
เมื่อ 14 ปีที่แล้ว
ค้นพบคอร์ด 9 เวอร์ชั่น
ยืมเขามาลา - แอมไฟน์
เมื่อ 12 ปีที่แล้ว
ค้นพบคอร์ด 9 เวอร์ชั่น
แฟนเก่า - แอมไฟน์ (Am Fine)
เมื่อ 10 ปีที่แล้ว
ค้นพบคอร์ด 2 เวอร์ชั่น
ข้อความ - แอมไฟน์
เมื่อ 12 ปีที่แล้ว
ค้นพบคอร์ด 9 เวอร์ชั่น
ไม่เหงาไม่มาใช่ไหม - แอมไฟน์ (Am Fine)
เมื่อ 12 ปีที่แล้ว
ค้นพบคอร์ด 13 เวอร์ชั่น
หลอกใช้ - ฝ้าย แอมไฟน์ (Amfine)
เมื่อ 8 ปีที่แล้ว
ค้นพบคอร์ด 2 เวอร์ชั่น
ตกหลุมรัก - แอมไฟน์
เมื่อ 12 ปีที่แล้ว
ค้นพบคอร์ด 8 เวอร์ชั่น
น้ำตาจะไหล - แอมไฟน์ (Amfine)
เมื่อ 8 ปีที่แล้ว
ค้นพบคอร์ด 2 เวอร์ชั่น
มาก่อนเจ็บก่อน - แอมไฟน์
เมื่อ 10 ปีที่แล้ว
ค้นพบคอร์ด 2 เวอร์ชั่น
คนไม่สวยผิดเสมอ - แอมไฟน์ (Am Fine)
เมื่อ 7 ปีที่แล้ว
ยังไม่มีคอร์ด
มั่นใจในรัก ไม่มั่นใจในเธอ - แอมไฟน์
เมื่อ 12 ปีที่แล้ว
ค้นพบคอร์ด 3 เวอร์ชั่น
ใกล้ตา - แอมไฟน์
เมื่อ 12 ปีที่แล้ว
ค้นพบคอร์ด 3 เวอร์ชั่น
ใจไม่แข็งเหมือนปาก - แอมไฟน์ (Amfine)
เมื่อ 8 ปีที่แล้ว
ค้นพบคอร์ด 2 เวอร์ชั่น
มั่นใจในรัก ไม่มั่นใจในเธอ - แอมไฟน์
เมื่อ 12 ปีที่แล้ว
ค้นพบคอร์ด 1 เวอร์ชั่น
ความเงียบแทนคำตอบ - แอมไฟน์ (Amfine)
เมื่อ 8 ปีที่แล้ว
ค้นพบคอร์ด 1 เวอร์ชั่น
รักจริงมีไหม (Ost. แม้เลือกเกิดได้) - ฝ้าย แอมไฟน์ (Amfine)
เมื่อ 4 ปีที่แล้ว
ค้นพบคอร์ด 1 เวอร์ชั่น
รับไว้อย่างเดียว - แอมไฟน์ (Am Fine)
เมื่อ 9 ปีที่แล้ว
ยังไม่มีคอร์ด
ไม่เหงา ไม่มาใช่มั้ย - แอมไฟน์(am five)
เมื่อ 11 ปีที่แล้ว
ยังไม่มีคอร์ด