คอร์ดเพลง ใจง่าย - ลาบานูน (Labanoon)

Version 3
แกะโดย แม็ค
เมื่อ 21 ม.ค.2550,11:54น.
ดู 849 ครั้ง



Intro
Line2
C Am F G
1|-8--------------------------8--------------------------8---------------------10
2|-8--------------------------10------------------------10-------------------12
3|-9--------------------------9--------------------------10-------------------12
4|-10------------------------10-------------------------10------------------12
5|-10-------------------------8--------------------------8--------------------10
6|-8---------------------------8--------------------------8--------------------10
Line1
1|
2|17-17-17-15-13-12---13-13-13-12
3|--------------------------14----------------14-12---14-14-14-16-17-16-16-16-16-17-19-17
4|-----------------------------------------------------15
นี่Introเว้นวรรคกันเอานะสะบัดปิ๊คเอามั่งนะครับตรงที่รัวๆ
----------------------------------------------------------------------------------------------------------------
-=ในท่อนร้องท่อนหลังท่อนฮุคแรกจะมีกีต้าร์เล่นตามนิดๆ=-
ไม่อยากเป็นอย่างนี้อีกเลย ใจเจ้าเอ๋ยรู้ตัวบ้างซิ
1|-6-5---5/3--3/5
มัวแต่ปล่อยให้เขาย่ำยี ไม่สงสารตัวเองรึไง เฮอะ
2|-8-8--6-6--5-6--5h6-5

ในเมื่อวันพรุ่งนี้ยังมี ชีวิตนี้นั้นยังอีกไกล
2|-15^-10(ดีดช่อง15ดันสายแล้วรูดไปช่อง10)

เจ็บก็จำให้มันขึ้นใจ ไม่ต้องช้ำข้างเดียวทั้งปี
2|-10-10--8-8--6-6--8-8/10

* ^= ดันสาย
----------------------------------------------------------------------------------------------------------------
Solo
1|
2|
3|-9-12-12-12-12/14-12-12--9-12-12/14-14/17-14-12-12/14--9-9/10

1|
2|-10-13-13-13-13/15-15/17-13--10-10-10/8--8-8-8/10-8-8/1
3|

1|
2|
3||-9-12-12-12-12/14-12-12--9-12-12/14-14/17-14-12-12/14--15^15/10

1|
2|-10-13-13-13-13/15-15/17-13--10-10-10/8--8-8-8/10-8-------8-10p---8/10
3|------------------------------------------------------------------------------7/9---------9

*/=สไลด์
p=pull off
----------------------------------------------------------------------------------------------------------------

ใจคนเราบางทีก็เหงาเกินไป จนไม่คิดอะไรให้ดี
2|12hph
3|12hph
4|12hoh
* h=hammer on
p=pull off

----------------------------------------------------------------------------------------------------------------

โอ้ใจเอยแล้วจะทำฉันท์ใดแล้วจะห้ามได้อย่างไร โว้..โฮ..
เหนื่อยจริงหนอที่มีใจเรื่อยเปื่อยแล้วต้องช้ำอยู่เรื่อยไป

1|-8-10-12--12-10-10-12-8--12-10-10--8-7-8--12-10--8-10-12--12-10-10-12-8
ต่อๆ
1|-12-10-10--8-7--8-7-5-7-8-7-5-7-8-7-5-7-8-7--10-8-7-8-10-8-7-8-10-8-7-8-
ลงมาต่ออีกนิดมันท่อนเดียวกันหมดเลยนะ
1|-10-10--8-8
เสร็จละท่อนที่มันไล่เร็วอาจหลายรอบกว่านี้นะลองเล่นดูเอาถ้าเขียนไม่ผิดเลยน่าจะ100%หมดเลยนะ
ผิดตรงไหนบอกนะเดี๋ยวมาแก้ไข เหมือน-ไม่เหมือนบอกหน่อยนะ
คอร์ดเพลง ใจง่าย

ความคิดเห็นเกี่ยวกับคอร์ดนี้

เนื้อเพลง ใจง่าย - ลาบานูน (Labanoon)



Intro:

วัน ทู ทรี โฟว์

Instru:

เจ็บมาจนไม่รู้กี่ที ใจดวงนี้ช้ำมากี่หน

แปลกที่ใจยังฝืนยังทน โดนเขาทิ้งเท่าไรไม่จำ

เจอะใครชวนไปไหนก็ไป เพียงคำหวานแค่ไม่กี่คำ

แต่สุดท้ายก็โดนเขาทำ แล้วก็ช้ำคนเดียวทุกที

ใจคนเราบางทีก็เหงาเกินไป จนไม่คิดอะไรให้ดี

พอมีคนมาหลอกให้รักเลยเจ็บแบบนี้

* โอ้ใจเอยแล้วจะทำฉันท์ใดแล้วจะห้ามได้อย่างไร โว้..โฮ..

เหนื่อยจริงหนอที่มีใจเรื่อยเปื่อยแล้วต้องช้ำอยู่เรื่อยไป

เมื่อไหร่ใจจะเลิกง่ายซะที

ไม่อยากเป็นอย่างนี้อีกเลย ใจเจ้าเอยรู้ตัวบ้างสิ

มัวแต่ปล่อยให้เขาย่ำยี ไม่สงสารตัวเองรึไง เฮอะ

ในเมื่อวันพรุ่งนี้ยังมี ชีวิตนี้นั้นยังอีกไกล

เจ็บก็จำให้มันขึ้นใจ ไม่ต้องช้ำข้างเดียวทั้งปี

** ใจคนเราบางทีก็เหงาเกินไป จนไม่คิดอะไรให้ดี

พอมีคนมาหลอกให้รักเลยเจ็บแบบนี้

แย่ๆๆ เจอใครก็รัก เจอใครก็รัก เฮ้อ..
(ซ้ำ *)
Instru:
(ซ้ำ **,*,*)
Instru:

Cover เพลงใจง่าย


ยังไม่มี Cover เพลงนี้

[ ช่วยกันแบ่งปันคลิปเพลงที่คุณเล่นเอง ]

ฟังเพลง ใจง่าย

แฟนเก่า - ลาบานูน (Labanoon)
เมื่อ 16 ปีที่แล้ว
ค้นพบคอร์ด 14 เวอร์ชั่น
เท่าเดิม - ลาบานูน (Labanoon)
เมื่อ 13 ปีที่แล้ว
ค้นพบคอร์ด 10 เวอร์ชั่น
คิดในใจ - ลาบานูน (Labanoon)
เมื่อ 2021 ปีที่แล้ว
ค้นพบคอร์ด 6 เวอร์ชั่น
รักแท้ - ลาบานูน (Labanoon)
เมื่อ 15 ปีที่แล้ว
ค้นพบคอร์ด 10 เวอร์ชั่น
ยาม - ลาบานูน (Labanoon)
เมื่อ 15 ปีที่แล้ว
ค้นพบคอร์ด 16 เวอร์ชั่น
เดาใจ - ลาบานูน Labanoon
เมื่อ 12 ปีที่แล้ว
ค้นพบคอร์ด 5 เวอร์ชั่น
อะไรก็ผิด - ลาบานูน (Labanoon)
เมื่อ 7 ปีที่แล้ว
ค้นพบคอร์ด 3 เวอร์ชั่น
191 - ลาบานูน (Labanoon)
เมื่อ 15 ปีที่แล้ว
ค้นพบคอร์ด 13 เวอร์ชั่น
ปฏิทิน - ลาบานูน (Labanoon)
เมื่อ 13 ปีที่แล้ว
ค้นพบคอร์ด 10 เวอร์ชั่น
บังอาจรักเธอ - ลาบานูน (Labanoon)
เมื่อ 15 ปีที่แล้ว
ค้นพบคอร์ด 8 เวอร์ชั่น
คนตัวดำ - ลาบานูน (Labanoon)
เมื่อ 12 ปีที่แล้ว
ค้นพบคอร์ด 7 เวอร์ชั่น
แอบรัก - ลาบานูน (Labanoon)
เมื่อ 15 ปีที่แล้ว
ค้นพบคอร์ด 5 เวอร์ชั่น
เป็นตายร้ายดี - ลาบานูน (Labanoon)
เมื่อ 14 ปีที่แล้ว
ค้นพบคอร์ด 8 เวอร์ชั่น
คำต้องห้าม - ลาบานูน (Labanoon)
เมื่อ 12 ปีที่แล้ว
ค้นพบคอร์ด 30 เวอร์ชั่น
ใจง่าย - ลาบานูน (Labanoon)
เมื่อ 16 ปีที่แล้ว
ค้นพบคอร์ด 5 เวอร์ชั่น
ซื่อ - ลาบานูน (Labanoon)
เมื่อ 15 ปีที่แล้ว
ค้นพบคอร์ด 7 เวอร์ชั่น
หนักใจ - ลาบานูน (Labanoon)
เมื่อ 15 ปีที่แล้ว
ค้นพบคอร์ด 4 เวอร์ชั่น
ฝันหวาน - ลาบานูน (Labanoon)
เมื่อ 13 ปีที่แล้ว
ค้นพบคอร์ด 14 เวอร์ชั่น
อย่าลำบาก - ลาบานูน
เมื่อ 16 ปีที่แล้ว
ค้นพบคอร์ด 4 เวอร์ชั่น
ถูกทุกข้อ - ลาบานูน (Labanoon)
เมื่อ 15 ปีที่แล้ว
ค้นพบคอร์ด 6 เวอร์ชั่น