คอร์ดเพลง ใช่ฉันหรือเปล่า - กะลา

Version 19
แกะโดย เด็กโย
เมื่อ 27 พ.ย.2549,19:57น.
ดู 580 ครั้ง
h นี่เอาไว้สไลป่าวอะ เราเดานะ 
ยกตัวอย่าง
1>---------------------------------------------------------------------------------------------------------
2>---------------------------------------------------------------------------------------------------------
3>--------5--7s9--------12--10-9-10-----------------5--7s9---------------5--7-7-5/4--------
4>--7h9-----------7--------------------------7---7h9-------------7------7h9-----------------------
5>---------------------------------------------------------------------------------------------------------
6>---------------------------------------------------------------------------------------------------------


1>---------------------------------------------------------------------------------------------------------
2>---13-12-10-10----10s12-13-15-17-10---18-17-17-18-17-10--10s12-13-15-15-
3>---------------------------------------------------------------------------------------------------------
4>---------------------------------------------------------------------------------------------------------
5>---------------------------------------------------------------------------------------------------------
6>---------------------------------------------------------------------------------------------------------


1>-----------------------------------------------I
2>----10-10s12-13-15---------------------I
3>-------------------------------17-------------I
4>-----------------------------------------------I
5>-----------------------------------------------I
6>-----------------------------------------------I

Solo : ซบที่อกฉัน (น่าจะตรงนะ)
คอร์ดเพลง ใช่ฉันหรือเปล่า

ความคิดเห็นเกี่ยวกับคอร์ดนี้

เวอร์ชั่นทั้งหมดของคอร์ดเพลงนี้

คอร์ดเพลง ใช่ฉันหรือเปล่า

52 | 6
โดย เปรมปรี
เมื่อ 12 ปีที่แล้ว

คอร์ดเพลง ใช่ฉันหรือเปล่า

2 | 0
โดย GuitarMaster [BRR Studen M6]
เมื่อ 13 ปีที่แล้ว

คอร์ดเพลง ใช่ฉันหรือเปล่า

0 | 0
โดย NooB
เมื่อ 11 ปีที่แล้ว

คอร์ดเพลง ใช่ฉันหรือเปล่า

0 | 0
โดย ต้นตาล
เมื่อ 12 ปีที่แล้ว

คอร์ดเพลง ใช่ฉันหรือเปล่า

0 | 0
โดย เก่ง
เมื่อ 12 ปีที่แล้ว

คอร์ดเพลง ใช่ฉันหรือเปล่า

0 | 0
โดย บอสแมน
เมื่อ 12 ปีที่แล้ว

คอร์ดเพลง ใช่ฉันหรือเปล่า

0 | 0
โดย กุเก่ง ฮ่าๆๆๆๆ
เมื่อ 12 ปีที่แล้ว

คอร์ดเพลง ใช่ฉันหรือเปล่า

0 | 0
โดย pp
เมื่อ 12 ปีที่แล้ว

คอร์ดเพลง ใช่ฉันหรือเปล่า

0 | 0
โดย เด็กโย
เมื่อ 12 ปีที่แล้ว

คอร์ดเพลง ใช่ฉันหรือเปล่า

0 | 0
โดย 11
เมื่อ 12 ปีที่แล้ว

คอร์ดเพลง ใช่ฉันหรือเปล่า

0 | 0
โดย AJ
เมื่อ 12 ปีที่แล้ว

คอร์ดเพลง ใช่ฉันหรือเปล่า

0 | 0
โดย Perm
เมื่อ 12 ปีที่แล้ว

คอร์ดเพลง ใช่ฉันหรือเปล่า

0 | 0
โดย รุต สามเสน
เมื่อ 12 ปีที่แล้ว

คอร์ดเพลง ใช่ฉันหรือเปล่า

0 | 0
โดย ม็อบนะครับ
เมื่อ 12 ปีที่แล้ว

คอร์ดเพลง ใช่ฉันหรือเปล่า

0 | 0
โดย รุต สามเสน
เมื่อ 12 ปีที่แล้ว

คอร์ดเพลง ใช่ฉันหรือเปล่า

0 | 0
โดย tee
เมื่อ 13 ปีที่แล้ว

คอร์ดเพลง ใช่ฉันหรือเปล่า

0 | 0
โดย sasuke
เมื่อ 13 ปีที่แล้ว

คอร์ดเพลง ใช่ฉันหรือเปล่า

0 | 0
โดย chainkung
เมื่อ 13 ปีที่แล้ว

คอร์ดเพลง ใช่ฉันหรือเปล่า

0 | 0
โดย chainkung
เมื่อ 13 ปีที่แล้ว

คอร์ดเพลง ใช่ฉันหรือเปล่า

0 | 0
โดย พี่โด
เมื่อ 13 ปีที่แล้ว

คอร์ดเพลง ใช่ฉันหรือเปล่า

0 | 0
โดย ศพเป็ด
เมื่อ 13 ปีที่แล้ว

คอร์ดเพลง ใช่ฉันหรือเปล่า

0 | 0
โดย #SoLuTion#
เมื่อ 13 ปีที่แล้ว

คอร์ดเพลง ใช่ฉันหรือเปล่า

0 | 0
โดย มือกีต้าโซโล่วงหนึ่ง (อายุ14 )
เมื่อ 13 ปีที่แล้ว

คอร์ดเพลง ใช่ฉันหรือเปล่า

0 | 0
โดย m,
เมื่อ 13 ปีที่แล้ว

คอร์ดเพลง ใช่ฉันหรือเปล่า

0 | 0
โดย หนุ่มนาข้าว
เมื่อ 13 ปีที่แล้ว

เนื้อเพลง ใช่ฉันหรือเปล่า - กะลา

ลื ม ต า ม อ ง ฉั น หั้ ย ดี อี ก ค รั้ ง

ค ว า ม จ ริ ง ค ว า ม ฝั น ต่ า ง กั น แ ค่ ไ ห น

รั ก ที่ เ ท อ ต้ อ ง ก า ร ผู้ ช า ย ที่ ฝั น ใ น จั ย

บ อ ก ตั ว เ อ ง ไ ด้ ไ ห ม ใ ช่ ฉั น ห รื อ เ ป ล่ า


เ ท อ อ า ยใ ค ร ไ ห ม ที่ เ ดิ น กั บ ฉั น

จั บ มื อ กั บ ฉั น ภู มิ จั ย บ้ า ง ไ ห ม

ฉั น จ ะ ย อ ม รั บ ฟั ง ห า ก เ ท อ ไ ม่ แ น่ จั ย

ก้ อ จ ะ พ ร้ อ ม ทำ ต า ม หั ว จั ย ข อ ง เ ท อ


* ไ ม่ ไ ด้ เ ลิ ศ ห รู แ ค่ ค น บ น พื้ น ดิ น ท ร า ย

ไ ม่ ใ ช่ เ จ้ า ช า ย ที่ มี หั้ ย เ ท อ ไ ด้ ทุ ก สิ่ ง

มี เ พี ย ง ส อ ง มื อ ที่ พ ร้ อ ม จะ ทำ เ พื่ อ เ ท อ ด้ ว ย รั ก จ ริ ง

ไ ม่ มี วั น จ ะ ทิ้ ง หั้ ย เ ท อ ต้ อ ง เ สี ย จั ย *


เ ท อ อ า ย ใ ค ร ไห ม ที่ เ ดิ น ข้ า ง ฉั น

ส บ ต า กั บ ฉั น อุ่ น จั ย แ ค่ ไ ห น

แ ม้ ยั ง ไ ม่ ดี พ อ ก้ อ ไ ม่ ต้ อ ง เ ก ร ง จั ย

อ ย า ก จั บ มื อ กั บ ฉั น เ รื่ อ ย ไ ป ห รื อ เ ป ล่ า


***********************************


Cover เพลงใช่ฉันหรือเปล่า


ยังไม่มี Cover เพลงนี้

[ ช่วยกันแบ่งปันคลิปเพลงที่คุณเล่นเอง ]

ฟังเพลง ใช่ฉันหรือเปล่า

ไม่เห็นฝุ่น - กะลา (KALA)
เมื่อ 9 ปีที่แล้ว
ค้นพบคอร์ด 3 เวอร์ชั่น
เธอเป็นแฟนฉันแล้ว - กะลา
เมื่อ 16 ปีที่แล้ว
ค้นพบคอร์ด 16 เวอร์ชั่น
ใจเรายังตรงกันอยู่ไหม - กะลา (Kala)
เมื่อ 7 ปีที่แล้ว
ค้นพบคอร์ด 4 เวอร์ชั่น
ขอเป็นตัวเลือก - กะลา
เมื่อ 15 ปีที่แล้ว
ค้นพบคอร์ด 9 เวอร์ชั่น
บอกสักคำ - กะลา
เมื่อ 16 ปีที่แล้ว
ค้นพบคอร์ด 15 เวอร์ชั่น
ถ้าเธอหลายใจ - กะลา
เมื่อ 14 ปีที่แล้ว
ค้นพบคอร์ด 10 เวอร์ชั่น
รอ - กะลา
เมื่อ 15 ปีที่แล้ว
ค้นพบคอร์ด 12 เวอร์ชั่น
เป็นแฟนกันตั้งแต่เมื่อไหร่ - กะลา
เมื่อ 12 ปีที่แล้ว
ค้นพบคอร์ด 7 เวอร์ชั่น
ทำใจให้ชิน - กะลา (Kala)
เมื่อ 9 ปีที่แล้ว
ค้นพบคอร์ด 1 เวอร์ชั่น
หยุด - กะลา (KALA)
เมื่อ 9 ปีที่แล้ว
ยังไม่มีคอร์ด
กะลา (ใช่ไหม) - กะลา KALA
เมื่อ 13 ปีที่แล้ว
ค้นพบคอร์ด 13 เวอร์ชั่น
ใช่ฉันหรือปล่าว - กะลา
เมื่อ 13 ปีที่แล้ว
ค้นพบคอร์ด 13 เวอร์ชั่น
เจ็บนี้มันลึก - กะลา
เมื่อ 14 ปีที่แล้ว
ค้นพบคอร์ด 16 เวอร์ชั่น
ปิดตา - กะลา
เมื่อ 14 ปีที่แล้ว
ค้นพบคอร์ด 11 เวอร์ชั่น
ใช่ฉันหรือเปล่า - กะลา
เมื่อ 13 ปีที่แล้ว
ค้นพบคอร์ด 32 เวอร์ชั่น
4 นาที - กะลา
เมื่อ 11 ปีที่แล้ว
ค้นพบคอร์ด 18 เวอร์ชั่น
นาฬิกาของคนรักกัน - กะลา (KALA)
เมื่อ 7 ปีที่แล้ว
ค้นพบคอร์ด 2 เวอร์ชั่น
ขอแค่ได้ฝัน - กะลา
เมื่อ 12 ปีที่แล้ว
ค้นพบคอร์ด 4 เวอร์ชั่น
ไม่มีทาง - กะลา
เมื่อ 14 ปีที่แล้ว
ค้นพบคอร์ด 7 เวอร์ชั่น
คนดีที่เย็นชา - กะลา (Kala)
เมื่อ 11 ปีที่แล้ว
ค้นพบคอร์ด 4 เวอร์ชั่น

คอร์ดเพลงใหม่

15 | 1/0

กอดเสาเถียง - ปรีชา ปัดภัย

คอร์ดโดย สมัครฟรี ไม่เสียค่าใช้จ่าย
เมื่อ 7 ชั่วโมง
10 | 0/0

จีบสาวฉาวเทือน - เจนนี่ - ลิลลี่ ได้หมดถ้าสดชื่น Feat.วู้ดดี้

คอร์ดโดย สมัครฟรี ไม่เสียค่าใช้จ่าย
เมื่อ 9 ชั่วโมง
45 | 1/0

เจ็บหนักวิทยา - เบลล์ นิภาดา

คอร์ดโดย สมัครฟรี ไม่เสียค่าใช้จ่าย
เมื่อ 2 วันก่อน
54 | 0/0

ถ่าเจ้ากลับมา - ป๊อป นพรัตน์

คอร์ดโดย ศิริศักดิ์ ฝ่ายวงค์
เมื่อ 4 วันก่อน
137 | 0/0

Ver.2 มากกว่าฝูงหมา - กางเกง

คอร์ดโดย สไมล์ เดวิลล์ ปีศาจอารมณ์ดี
เมื่อ 7 วันก่อน
56 | 1/0

Ver.5 ล้า - อะเลิทร์(Alert)

คอร์ดโดย Naternet Bassist
เมื่อ 8 วันก่อน
99 | 0/0

Ver.2 ผีบ้าถามทาง - บิ๊กวัน กันทรลักษ์

คอร์ดโดย สไมล์ เดวิลล์ ปีศาจอารมณ์ดี
เมื่อ 8 วันก่อน