คอร์ดเพลง ใต้ร่มเย็น - สันติภาพ

Version 6
แกะโดย GayMan
เมื่อ 13 ก.ย.2550,19:52น.
ดู 549 ครั้ง

เอาไปเลยโซโล่ใต้ร่มเย็นท่อนกลางครับพี่น้องผมแกะเอง

1/----------------------------10----------10--10/13---13--13/10-------------------------
2/-8--10--10/13-----8-----------13-----------------------------------13/14--------------

1/----------------------------10----------10--10/13---13--13---10-----------------------
2/-8--10--10/13-----8---------13--------------------------------------14---13---10-----

1/-----16--16-----------18--18--18-----------15/16----15---15/16---15-------------
2/-----------------16---------------------16-----------------------------------------18-----16

1/-----------------------------------------------16----18^ดันสาย---16/18-------------------
2/---------------------------------16---18-------------------------------------------------------
3/-----13-----15----15/17---------------------------------------------------------------------

1/-----16---18^--18^----16---18---16---------16------
2/-----------------------------------------------18------------

1/-----------------------------------18^-----------------------------------
2/------------------------16--18------------------------------------------
3/----13----15---17------------------------------------------------------

ขอให้เพลงเพื่อชีวิตจงเจริญยิ่งๆขึ้นไป
กฤต ญว.2 ม.4/3
คอร์ดเพลง ใต้ร่มเย็น

ความคิดเห็นเกี่ยวกับคอร์ดนี้

เวอร์ชั่นทั้งหมดของคอร์ดเพลงนี้

คอร์ดเพลง ใต้ร่มเย็น

45 | 8
โดย โอเลี้ยง
เมื่อ 12 ปีที่แล้ว

คอร์ดเพลง ใต้ร่มเย็น

3 | 0
โดย GayMan
เมื่อ 12 ปีที่แล้ว

คอร์ดเพลง ใต้ร่มเย็น

0 | 0
โดย Gooner Maan
เมื่อ 9 เดือนที่แล้ว

คอร์ดเพลง ใต้ร่มเย็น

0 | 0
โดย ตู่
เมื่อ ปีที่แล้ว

คอร์ดเพลง ใต้ร่มเย็น

0 | 0
โดย DoopDip
เมื่อ 5 ปีที่แล้ว

คอร์ดเพลง ใต้ร่มเย็น

0 | 0
โดย ototo
เมื่อ 6 ปีที่แล้ว

คอร์ดเพลง ใต้ร่มเย็น

0 | 0
โดย ototo
เมื่อ 6 ปีที่แล้ว

คอร์ดเพลง ใต้ร่มเย็น

0 | 0
โดย GayMan
เมื่อ 12 ปีที่แล้ว

คอร์ดเพลง ใต้ร่มเย็น

0 | 0
โดย รองเท้าแตะ
เมื่อ 12 ปีที่แล้ว

คอร์ดเพลง ใต้ร่มเย็น

0 | 0
โดย โปร
เมื่อ 12 ปีที่แล้ว

คอร์ดเพลง ใต้ร่มเย็น

0 | 0
โดย โอเลี้ยง
เมื่อ 12 ปีที่แล้ว

เนื้อเพลง ใต้ร่มเย็น - สันติภาพ

เพลง ใต้ร่มเย็น
ศิลปิน สันติภาพ


...แผ่นดินลุกร้อนเป็นไฟปักษ์ใต้ที่เคยร่มเย็น

ต้องเจอกับความทุกข์เข็ญกลายเป็นข่าวร้ายชั่วข้ามคืน

เด็กน้อยต้องทนรับกรรมต้องพบกับความขมขื่น

เขามาหยิบยื่นเขามาปล้นปืนเผาโรงเรียน...

...ต่างคนต่างคิดระแวงต่างแย่งชิงความเป็นใหญ่

ผลประโยชน์ที่มีมากมายจึงมุ่งทำลายกันและกัน

ดับฝันอนาคตของไทยด้วยไฟที่มันเผาผลาญ

น้ำตาลูกหลานร่วงหยดลงบนผืนดินไทย...

...เผาโรงเรียนหนูทำไมหนูไปทำอะไรให้ช้ำใจ

เขาทำไมถึงใจร้ายจึงกระทำกันได้ลงคอ

เขาจะรบก็รบไปทำไมเอาหนูไปเกี่ยวข้อง

หนูนั้นร่ำร้องด้วยใจเศร้าหมองขอโรงเรียนหนูกลับคืน...

...ให้คนเกิดสามัคคีให้มีพลังอันยิ่งใหญ่

ดับไฟที่โหมทำลายให้กลายเป็นเพียงวันวาน

ร่วมประสานร่วมแรงร่วมใจให้ปักษ์ใต้นั้นดูงดงาม

มาร่วมขับขานแผ่นดินด้ามขวานให้ร่มเย็น...ใต้ร่มเย็น

สันติภาพจงสู่ปักษ์ของเรา...ใต้ร่มเย็น

สันติสุขจงสู่แผ่นดินของเรา

ผิดตรงไหนก็ช่วยกันแก้นะครับ/ท่อนหลังไม่ชัวเลยไม่ลงไว้ครับ ช่วยกันแกะครับ

Cover เพลงใต้ร่มเย็น


ยังไม่มี Cover เพลงนี้

[ ช่วยกันแบ่งปันคลิปเพลงที่คุณเล่นเอง ]

ฟังเพลง ใต้ร่มเย็น

แรกรัก - สันติภาพ
เมื่อ 11 ปีที่แล้ว
ค้นพบคอร์ด 6 เวอร์ชั่น
จะอยู่อย่างไร - สันติภาพ
เมื่อ 11 ปีที่แล้ว
ค้นพบคอร์ด 2 เวอร์ชั่น
ใต้ร่มเย็น - สันติภาพ
เมื่อ 12 ปีที่แล้ว
ค้นพบคอร์ด 12 เวอร์ชั่น
หวังของพ่อแม่ - สันติภาพ
เมื่อ 11 ปีที่แล้ว
ค้นพบคอร์ด 5 เวอร์ชั่น
วัยบริสุทธิ์ - สันติภาพ
เมื่อ 11 ปีที่แล้ว
ค้นพบคอร์ด 3 เวอร์ชั่น
เงา - สันติภาพ
เมื่อ 11 ปีที่แล้ว
ค้นพบคอร์ด 1 เวอร์ชั่น
แผลใจ - สันติภาพ
เมื่อ 11 ปีที่แล้ว
ค้นพบคอร์ด 3 เวอร์ชั่น
ใจแตก - สันติภาพ
เมื่อ 9 ปีที่แล้ว
ค้นพบคอร์ด 4 เวอร์ชั่น
อย่าจากฉันไป - สันติภาพ
เมื่อ 9 ปีที่แล้ว
ค้นพบคอร์ด 2 เวอร์ชั่น
เขมริน อินทิรา - สันติภาพ
เมื่อ 11 ปีที่แล้ว
ค้นพบคอร์ด 4 เวอร์ชั่น
เพียงเธอผู้เดียว UpdateChord - สันติภาพ
เมื่อ 11 ปีที่แล้ว
ค้นพบคอร์ด 9 เวอร์ชั่น
ยังคงรักเธอ - สันติภาพ
เมื่อ 11 ปีที่แล้ว
ค้นพบคอร์ด 2 เวอร์ชั่น
ปริญญาใบน้อย - สันติภาพ
เมื่อ 11 ปีที่แล้ว
ค้นพบคอร์ด 1 เวอร์ชั่น
แค่ใครสักคน - สันติภาพ
เมื่อ 11 ปีที่แล้ว
ค้นพบคอร์ด 2 เวอร์ชั่น
เป็นพี่เป็นน้อง - สันติภาพ
เมื่อ 11 ปีที่แล้ว
ค้นพบคอร์ด 1 เวอร์ชั่น
มันเจ็บ - สันติภาพ
เมื่อ 9 ปีที่แล้ว
ค้นพบคอร์ด 3 เวอร์ชั่น
กระท่อมไม้ไผ่ - สันติภาพ
เมื่อ 11 ปีที่แล้ว
ค้นพบคอร์ด 1 เวอร์ชั่น
หมดลาย - เอ๋ สันติภาพ
เมื่อ 11 ปีที่แล้ว
ค้นพบคอร์ด 3 เวอร์ชั่น
พลฯทหารสถาพร - สันติภาพ
เมื่อ 11 ปีที่แล้ว
ค้นพบคอร์ด 1 เวอร์ชั่น
สัญญาบ้านนา - สันติภาพ
เมื่อ 11 ปีที่แล้ว
ค้นพบคอร์ด 1 เวอร์ชั่น