คอร์ดเพลง ได้ยินแล้วหายเหนื่อย - เสือใหญ่

Version 8
แกะโดย Nattanun
เมื่อ 18 ต.ค.2549,20:02น.
ดู 311 ครั้ง
Solo แกะเองครับ ลองเทียบคีย์ตามเพลงแล้วคิดว่าอันนี้น่าจะตรง แต่ทำไมคีย์มันต่างจากIntroครึ่งเสียงไม่รู้ ถ้าไม่ตรงก็ขอให้ลดหรือเพิ่มเอาครึ่งเสียงนะครับ คงไม่คลาดเคลื่อนมากนัก แต่ลำดับเสียงอันนี้คิดว่าเป๊ะแล้ว ลองเอาไปเล่นดูครับ

1)--------------------------12---|------------------------------------/16-16|-12------------------------
2)14-14-12-14-12-14---14|-12---14-14-12-14-12-14------------|---14-14-12-14-12-14
3)---------------------------------|---------------------------------------------|-----------------------------
4)---------------------------------|---------------------------------------------|-----------------------------
5)---------------------------------|---------------------------------------------|-----------------------------

1)12----|----------15^--14--12-----|-------------------------------|--------------------
2)----14|-12--12---------------------|-------------------------------|--------------------
3)--------|------------------------------|-------------------------------|--------------------
4)--------|------------------------------|14-11----11--11-14-14-|11--9-/11-9----
5)--------|------------------------------|--------14--------------------|--------------------

คำบางคำ
1)------------------------------|-------------------------------|------------------------|
2)------------------------------|-------------------------------|------------------------|
3)-----------------13-13-13-|13---/14-14-16-16-14-|------------------------|
4)-14-11----11--------------|-------------------------------|------------------------|
5)---------14------------------|-------------------------------|------------------------|

บล. / คือลูดนิ้วจากเสียงต่ำกว่าไปหาตัวเลขหลังเครื่องหมาย/ เช่น /16คือลูดจากเฟร็ตน้อยกว่า16ไปถึง16
^ คือดันสายขึ้น ทำให้เสียงสูงขึ้น(ในท่อนsoloนี้ตอนดันสาย ดันสูงขึ้นครึ่งเสียง ซึ่งบางเพลงอาจดันขึ้น1เสียงเลยก็ได้)

เทคนิดการดีดที่ผมโพสนี้อาจไม่ตรงนะครับ ใครหูดีก็ฟังแล้วค้นหากันเอาเองนะครับ แต่ลำดับเสียงคิดว่าถูกแน่แล้ว
* อ้อ ผมอยากฝากบอกเพื่อนๆที่มาโพสด้วยนะครับว่าการโพสที่ดีควรกั้นห้องแบ่งจังหวะด้วย จะช่วยให้เข้าใจง่ายขึ้น
คอร์ดเพลง ได้ยินแล้วหายเหนื่อย

ความคิดเห็นเกี่ยวกับคอร์ดนี้

เวอร์ชั่นทั้งหมดของคอร์ดเพลงนี้

คอร์ดเพลง ได้ยินแล้วหายเหนื่อย

14 | 3
โดย โน่
เมื่อ 13 ปีที่แล้ว

คอร์ดเพลง ได้ยินแล้วหายเหนื่อย

0 | 0
โดย เดกะคุง
เมื่อ 12 ปีที่แล้ว

คอร์ดเพลง ได้ยินแล้วหายเหนื่อย

0 | 0
โดย vbvb
เมื่อ 13 ปีที่แล้ว

คอร์ดเพลง ได้ยินแล้วหายเหนื่อย

0 | 0
โดย Nattanun
เมื่อ 13 ปีที่แล้ว

คอร์ดเพลง ได้ยินแล้วหายเหนื่อย

0 | 0
โดย โน่
เมื่อ 13 ปีที่แล้ว

คอร์ดเพลง ได้ยินแล้วหายเหนื่อย

0 | 0
โดย Nattanun
เมื่อ 13 ปีที่แล้ว

คอร์ดเพลง ได้ยินแล้วหายเหนื่อย

0 | 0
โดย หอยโข่ง
เมื่อ 13 ปีที่แล้ว

คอร์ดเพลง ได้ยินแล้วหายเหนื่อย

0 | 0
โดย Guitar Master Brr Studen M6
เมื่อ 13 ปีที่แล้ว

คอร์ดเพลง ได้ยินแล้วหายเหนื่อย

0 | 0
โดย raakzai
เมื่อ 13 ปีที่แล้ว

คอร์ดเพลง ได้ยินแล้วหายเหนื่อย

0 | 1
โดย นิว วง Shark
เมื่อ 13 ปีที่แล้ว

เนื้อเพลง ได้ยินแล้วหายเหนื่อย - เสือใหญ่


ได้ยินแล้วหายเหนื่อย/เสือใหญ่

Intro




รู้สึกดี ที่รู้ว่ามีใครคอยห่วง



ใจทั้งดวงจะพอตอบแทนได้ไหม



เธอให้มา มันมากกว่าคำว่าห่วงใย



แต่รู้ใช่ไหมฉันทำทุกอย่างเพื่อใคร





* คำบางคำ บวกกับความจริงใจ



เปลี่ยนเป็นกำลังใจให้กัน



คำๆ นึงที่เธอบอกกับฉัน



ว่าเราจะรักกันตลอดไป...เธอรู้บ้างไหม...




** ได้ฟังแล้วชื่นใจ ได้ยินแล้วหายเหนื่อย



จะฟังกี่ครั้ง ทุกคำยังซึ้งตรึงใจ



แค่คำว่ารักกัน แค่คำว่าเหนื่อยไหม



ทุกคำที่มาจากใจ ทุกคำที่เธอห่วงใย



ได้ยินแล้วหายเหนื่อย...


Solo(2 Time)/


(ซ้ำ *,**,**)


Solo/




ได้ยินแล้วหายเหนื่อย



ถูกผิดขอคำปรึกษาด้วยน๊าครับเป็นกำลังใจให้กัน


Cover เพลงได้ยินแล้วหายเหนื่อย


ยังไม่มี Cover เพลงนี้

[ ช่วยกันแบ่งปันคลิปเพลงที่คุณเล่นเอง ]

ฟังเพลง ได้ยินแล้วหายเหนื่อย

ขาดความอบอุ่น - เสือใหญ่
เมื่อ 14 ปีที่แล้ว
ค้นพบคอร์ด 14 เวอร์ชั่น
ดีแต่... - เสือใหญ่
เมื่อ 14 ปีที่แล้ว
ค้นพบคอร์ด 4 เวอร์ชั่น
หัวใจล้มเหลว - เสือใหญ่
เมื่อ 13 ปีที่แล้ว
ค้นพบคอร์ด 11 เวอร์ชั่น
ได้ยินแล้วหายเหนื่อย - เสือใหญ่
เมื่อ 13 ปีที่แล้ว
ค้นพบคอร์ด 11 เวอร์ชั่น
เหนื่อยเปล่า - เสือใหญ่
เมื่อ 14 ปีที่แล้ว
ค้นพบคอร์ด 2 เวอร์ชั่น
เท่าที่ได้ - เสือใหญ่
เมื่อ 14 ปีที่แล้ว
ค้นพบคอร์ด 3 เวอร์ชั่น
ฟ้า..ลำเอียง - เสือใหญ่
เมื่อ 14 ปีที่แล้ว
ค้นพบคอร์ด 2 เวอร์ชั่น
ที่ใจหาเจอ - เสือใหญ่
เมื่อ 11 ปีที่แล้ว
ค้นพบคอร์ด 7 เวอร์ชั่น
วัตถุคล้ายเพลง - เสือใหญ่
เมื่อ 13 ปีที่แล้ว
ค้นพบคอร์ด 1 เวอร์ชั่น
รัก.. ยิ่งกว่ารัก - เสือใหญ่
เมื่อ 14 ปีที่แล้ว
ค้นพบคอร์ด 1 เวอร์ชั่น
เพราะเธอ - เสือใหญ่
เมื่อ 14 ปีที่แล้ว
ยังไม่มีคอร์ด
ฟ้าลำเอียง - เสือใหญ่
เมื่อ 6 ปีที่แล้ว
ค้นพบคอร์ด 1 เวอร์ชั่น
รักยิ่งกว่ารัก - เสือใหญ่
เมื่อ 6 ปีที่แล้ว
ค้นพบคอร์ด 1 เวอร์ชั่น