คอร์ดเพลง ไม่ให้เธอไป - โปเตโต้ (Potato)

Version 14
แกะโดย รุต สามเสน
เมื่อ 9 มิ.ย.2549,16:19น.
ดู 761 ครั้ง
มาแล้วจ้า
ไม่ให้เธอไป
Intro
1.)--1--------------3---2--------------2 | -0----------0----------0
2.)--------0------------------0---------- | -----------3-----3----------------0
3.)------------0------------------0------ | -------0-------------0-------2
4.)----------------------0---------------- | -------------------------------------
5.)--------------------------------------- | -3---------------2------------------
6.)--0---------------------------------- | ------------------------------------

1.)-----------------------------------------0 |-----------------------------------------0
2.)---0----1-------------1------0-----------------0 |---0-----1------------1----0-------0
3.)-------------0---------------------0--------2 |---------------0-----------------0
4.)------------------2------------------------------ |-------------------2-------------
5.)--------0------------------------------------- |----------0----------------------
6.)-----------------------3-------------- |-----------------------------3---
แล้วขึ้นร้อง
1.)-3---------3----2------------2|-0----------0-------------0---------- |--------------------------------0
2.)----0----------------0----- |---------3-------3-------------------0 -0----1----------1----0---------------0
3.)--------0-----------------0 |-----0-----------------0--------2 |----------0-----------------0------2
4.)-----------------0------------- |------------------------------------- |--------------2---------------------------
5.)------------------------------- |-3----------------2----------------- |------0-----------------------------------
6.)-0---------------------- |---------------------------------------- |------------------------3-----------------

1.)------------------------------------------0 |--------------------0-----------
2.)-01-------------1-----0-------0--- |-01--------1-------3------2
3.)------------0-------------------0--- |------------0---------------------
4.)----------------2------------------- |------------------------0-------0
5.)-------0--------------------------- |-------0---------------------------
6.)----------------------------3-------- |------------------------------------ขึ้นท่อนHook
Solo
1.)----------------------------------------------------------8--12--12---15-15-15^--
2.)-------------------------------------------8--10--12----------------------------------
3.)-----------------------------------7--9-------------------------------------------------
4.)-------------------------7-----9--------------------------------------------------------
5.)------------7--10----------------------------------------------------------------------
6.)--0--3--7------------------------------------------------------------------------------

1.)-15-------------------------------------------------------------------------------------
2.)---------------------------------------------------------------------------------8--12-
3.)-----------4--4/5--5/7---------------------------------4--4/5--7--7/9----------
4.)------5-5-------------------52-------------------5-7-------------------------------
5.)----------------------------------------------5--7-------------------------------------
6.)-------------------------------------3--7----------------------------------------------

1.)-8-10-12-15-17----19^
ลองเล่นดูนะแกะจากกีตาร์โปร4
ถ้าเหมือนก็ขอบคุณ
ถ้าไม่เหมือนก็ขอโทษ
คอร์ดเพลง ไม่ให้เธอไป

ความคิดเห็นเกี่ยวกับคอร์ดนี้

เวอร์ชั่นทั้งหมดของคอร์ดเพลงนี้

คอร์ดเพลง ไม่ให้เธอไป

127 | 23
โดย NV pooh
เมื่อ 16 ปีที่แล้ว

คอร์ดเพลง ไม่ให้เธอไป

2 | 0
โดย ชัดเจน
เมื่อ 9 ปีที่แล้ว

คอร์ดเพลง ไม่ให้เธอไป

0 | 0
โดย น้ำ นครบึง
เมื่อ 7 เดือนที่แล้ว

คอร์ดเพลง ไม่ให้เธอไป

0 | 0
โดย เบนซ์
เมื่อ 5 ปีที่แล้ว

คอร์ดเพลง ไม่ให้เธอไป

0 | 0
โดย TON
เมื่อ 11 ปีที่แล้ว

คอร์ดเพลง ไม่ให้เธอไป

0 | 0
โดย WoRsT *
เมื่อ 11 ปีที่แล้ว

คอร์ดเพลง ไม่ให้เธอไป

0 | 0
โดย oDufyDeeFo
เมื่อ 11 ปีที่แล้ว

คอร์ดเพลง ไม่ให้เธอไป

0 | 0
โดย oDufyDeeFo
เมื่อ 11 ปีที่แล้ว

คอร์ดเพลง ไม่ให้เธอไป

0 | 0
โดย skoobadragon
เมื่อ 12 ปีที่แล้ว

คอร์ดเพลง ไม่ให้เธอไป

0 | 0
โดย เบลล์
เมื่อ 12 ปีที่แล้ว

คอร์ดเพลง ไม่ให้เธอไป

0 | 0
โดย มัสเด็กคอนหวัน
เมื่อ 12 ปีที่แล้ว

คอร์ดเพลง ไม่ให้เธอไป

0 | 0
โดย kiw
เมื่อ 12 ปีที่แล้ว

คอร์ดเพลง ไม่ให้เธอไป

0 | 0
โดย รุต สามเสน
เมื่อ 13 ปีที่แล้ว

คอร์ดเพลง ไม่ให้เธอไป

0 | 0
โดย ทีนนนนนนนนนนนนนนนน
เมื่อ 13 ปีที่แล้ว

คอร์ดเพลง ไม่ให้เธอไป

0 | 0
โดย ไนท์
เมื่อ 14 ปีที่แล้ว

คอร์ดเพลง ไม่ให้เธอไป

0 | 0
โดย monixe
เมื่อ 15 ปีที่แล้ว

คอร์ดเพลง ไม่ให้เธอไป

0 | 0
โดย รัน
เมื่อ 15 ปีที่แล้ว

คอร์ดเพลง ไม่ให้เธอไป

0 | 0
โดย รัน
เมื่อ 15 ปีที่แล้ว

คอร์ดเพลง ไม่ให้เธอไป

0 | 0
โดย sun
เมื่อ 15 ปีที่แล้ว

คอร์ดเพลง ไม่ให้เธอไป

0 | 0
โดย sun
เมื่อ 15 ปีที่แล้ว

คอร์ดเพลง ไม่ให้เธอไป

0 | 0
โดย bEcKgAmE
เมื่อ 15 ปีที่แล้ว

คอร์ดเพลง ไม่ให้เธอไป

0 | 0
โดย Hollewood_Pool
เมื่อ 15 ปีที่แล้ว

คอร์ดเพลง ไม่ให้เธอไป

0 | 0
โดย NV Pooh
เมื่อ 15 ปีที่แล้ว

คอร์ดเพลง ไม่ให้เธอไป

0 | 0
โดย ขี้เกี้ยม
เมื่อ 15 ปีที่แล้ว

คอร์ดเพลง ไม่ให้เธอไป

0 | 0
โดย ขี้เกี้ยม
เมื่อ 15 ปีที่แล้ว

คอร์ดเพลง ไม่ให้เธอไป

0 | 0
โดย s
เมื่อ 15 ปีที่แล้ว

คอร์ดเพลง ไม่ให้เธอไป

0 | 0
โดย NV Pooh
เมื่อ 16 ปีที่แล้ว

เนื้อเพลง ไม่ให้เธอไป - โปเตโต้ (Potato)


ไม่ให้เธอไป
rtist : โปเตโต้

Intro :


* จากนาที. . ที่เธอ บอกลาจากฉันไป

เพราะอะไร? เหตุใด?. . ไม่เข้าใจ

ว่าทำไมต้องมาทิ้งกัน. . .

อยากจะดึง. . รั้งเธอ กอดเธอให้เนิ่นนาน

เพื่อให้ความทรงจำของวันวาน
sus4/
ทำให้เราได้กลับมารักกัน. .


** ไม่ให้เธอไป. . ต้องเสียอะไร แค่ไหน ยังไง เท่าไร

เสียเธอไป. . .ไม่รู้จะทนอ้างว้าง ได้นานเท่าไร

ไม่ให้เธอไป. . บอกฉันสักคำ. . แค่ไหนที่เธอต้องการ

ฉันจะทำ. . เพื่อขอให้เธอเปลี่ยนใจ

แค่เพียงเธอไม่ไป. . .รักใคร


*** ไม่หวังอะไร ให้ใจทั้งใจของเธอ. . มีฉัน
sus4/
ก็รู้ดีวันนี้. .สายเกินไป

ฮือ ฮือ. .

( ซ้ำ * , ** )

Solo :

( ซ้ำ ** , *** )

nding :


Cover เพลงไม่ให้เธอไป


ยังไม่มี Cover เพลงนี้

[ ช่วยกันแบ่งปันคลิปเพลงที่คุณเล่นเอง ]

ฟังเพลง ไม่ให้เธอไป

เธอยัง - โปเตโต้ (Potato)
เมื่อ 8 ปีที่แล้ว
ค้นพบคอร์ด 7 เวอร์ชั่น
แพ้ใจ - โปเตโต้ (POTATO)
เมื่อ 8 ปีที่แล้ว
ค้นพบคอร์ด 4 เวอร์ชั่น
แชร์ (Share) - โปเตโต้ (Potato)
เมื่อ 10 ปีที่แล้ว
ค้นพบคอร์ด 1 เวอร์ชั่น
ไม่ให้เธอไป - โปเตโต้ (Potato)
เมื่อ 16 ปีที่แล้ว
ค้นพบคอร์ด 28 เวอร์ชั่น
ปากดี - โปเตโต้ (Potato)
เมื่อ 14 ปีที่แล้ว
ค้นพบคอร์ด 41 เวอร์ชั่น
รักเธอไปทุกวัน - โปเตโต้ (Potato)
เมื่อ 11 ปีที่แล้ว
ค้นพบคอร์ด 13 เวอร์ชั่น
ยิ่งใกล้ยิ่งเจ็บ - โปเตโต้ (Potato)
เมื่อ 14 ปีที่แล้ว
ค้นพบคอร์ด 6 เวอร์ชั่น
ขอบคุณที่รักกัน - โปเตโต้ (Potato)
เมื่อ 13 ปีที่แล้ว
ค้นพบคอร์ด 26 เวอร์ชั่น
ไม่รู้จะอธิบายยังไง - โปเตโต้ (POtATo)
เมื่อ 8 ปีที่แล้ว
ค้นพบคอร์ด 1 เวอร์ชั่น
อารมณ์สีเทา - โปเตโต้(Potato)
เมื่อ 11 ปีที่แล้ว
ค้นพบคอร์ด 10 เวอร์ชั่น
หวังดีเสมอ - โปเตโต้ (Potato)
เมื่อ 14 ปีที่แล้ว
ค้นพบคอร์ด 10 เวอร์ชั่น
ภาษากาย - โปเตโต้ (Potato)
เมื่อ 14 ปีที่แล้ว
ค้นพบคอร์ด 17 เวอร์ชั่น
กล้าพอไหม - โปเตโต้ (Potato)
เมื่อ 18 ปีที่แล้ว
ค้นพบคอร์ด 20 เวอร์ชั่น
เพียงพอ - โปเตโต้ (Potato)
เมื่อ 12 ปีที่แล้ว
ค้นพบคอร์ด 34 เวอร์ชั่น
ขอบคุณที่รักกัน(Acoustic) - โปเตโต้ (Potato)
เมื่อ 13 ปีที่แล้ว
ค้นพบคอร์ด 17 เวอร์ชั่น
นี่แหละความเสียใจ - โปเตโต้ (Potato)
เมื่อ 12 ปีที่แล้ว
ค้นพบคอร์ด 39 เวอร์ชั่น
ชีวิตที่ขาดเธอ - โปเตโต้(potato)
เมื่อ 12 ปีที่แล้ว
ค้นพบคอร์ด 10 เวอร์ชั่น
ฉันคิดถึงเธอ - โปเตโต้ (POTATO)
เมื่อ 9 ปีที่แล้ว
ค้นพบคอร์ด 1 เวอร์ชั่น
คำตอบของหัวใจ - โปเตโต้ (Potato)
เมื่อ 12 ปีที่แล้ว
ค้นพบคอร์ด 21 เวอร์ชั่น
ทนพิษบาดแผลไม่ไหว - โปเตโต้ (Potato)
เมื่อ 10 ปีที่แล้ว
ค้นพบคอร์ด 6 เวอร์ชั่น