คอร์ดเพลง Away - บอดี้สแลม (Bodyslam)

Version 4
แกะโดย แม็ก
เมื่อ 22 มี.ค.2550,20:01น.
ดู 1213 ครั้ง



AWAY : BODYSLAM
Intro

[1-----------------------------------------------------------------------------------------------------------------------]
[2---------13/15--14-------------------------------------13/15--14-------------------------------------12-------------]
[3--------------------14---11---12----11----9----7---------------------14----11----12----11------9------------------]
[4-----------------------------------------------------------------------------------------------------------------------]
[5-----------------------------------------------------------------------------------------------------------------------]
[6-----------------------------------------------------------------------------------------------------------------------]

1-----------------------------------------------------------------------------------------------------------]
2--------13/15--14-------------13/15--14----------------13/15--14---------------------------------------]
3--------------------14----------------------14--------------------------14----11---12---11----/9-----------]

SOLO ท่อนกลาง ยังแกะไม่ได้อ่ะ ฟังมะยู้เรื่อง
แต่ได้ประมาณนี่อ่ะ

[1-----------------------9--10---9--------------------------------------------------------------------------------------------]
[2------------------10---------------(10)--------------------------------------------------------------------------------------]
[3--------------9-------------------------(9)--------(ยังไม่จบ น่ะ)-----------------------------------------------------------]
[4-----11--12---------------------------------อะไรประมาณนี้นี่แหละ ขึ้น ลง วนเอาอ่ะ ช่วงตั้งแต่ วงเล็บ ไปไม่แน่ใจ -]


SOLO [ 2 ]

1----------14-----12------------------------------12----14-----12-------------------------------12----14-----12-----]
2------------------------15--14--15---14--15--------------------------15--14--15---14--15--------------------------]
3-----------------------------------------------------------------------------------------------------------------------]

1-------------------------------------12----14-----12-------------------------------12----------]
2-----------15--14--15---14--15--------------------------15--14--15---14--15-----------------]
3-------------------------------------------------------------------------------------------------]

1------------17-------15---14---15---14---15--------17----------15---14---15---14---15---------17-------15---14---15---14---15--------17-----------]
2-----------------------------------------------------------------------------------------------------------------------------------------------------------]

1------------15---14---15---14---15-----------------------------------------------------------------------------------------------------------------------]
2----------------------------------------15-----------------------------------------------------------------------------------------------------------------]

คอร์ดเพลง Away

ความคิดเห็นเกี่ยวกับคอร์ดนี้

เนื้อเพลง Away - บอดี้สแลม (Bodyslam)

ต้องการเพลงนี้มากครับหาเนื้อยากมากใครมีช่วยลงไว้ให้ด้วยนะครับถ้ามีคอร์ดด้วยยิ่งดีขอบคุณมากครับ

Cover เพลงAway


ยังไม่มี Cover เพลงนี้

[ ช่วยกันแบ่งปันคลิปเพลงที่คุณเล่นเอง ]

ฟังเพลง Away

งมงาย - บอดี้สแลม (Bodyslam)
เมื่อ 16 ปีที่แล้ว
ค้นพบคอร์ด 23 เวอร์ชั่น
แสงสุดท้าย - บอดี้สแลม (bodyslam)
เมื่อ 9 ปีที่แล้ว
ค้นพบคอร์ด 3 เวอร์ชั่น
ความรัก - บอดี้สแลม (Bodyslam)
เมื่อ 9 ปีที่แล้ว
ค้นพบคอร์ด 13 เวอร์ชั่น
เปราะบาง - บอดี้สแลม (bodyslam)
เมื่อ 9 ปีที่แล้ว
ค้นพบคอร์ด 5 เวอร์ชั่น
ปลายทาง - บอดี้สแลม (Bodyslam)
เมื่อ 16 ปีที่แล้ว
ค้นพบคอร์ด 27 เวอร์ชั่น
สักวันฉันจะดีพอ - บอดี้สแลม (Bodyslam)
เมื่อ 15 ปีที่แล้ว
ค้นพบคอร์ด 14 เวอร์ชั่น
อกหัก - บอดี้สแลม (Bodyslam)
เมื่อ 12 ปีที่แล้ว
ค้นพบคอร์ด 63 เวอร์ชั่น
ความรักทำให้คนตาบอด - บอดี้สแลม (Bodyslam)
เมื่อ 14 ปีที่แล้ว
ค้นพบคอร์ด 45 เวอร์ชั่น
ขอบฟ้า - บอดี้สแลม (Bodyslam)
เมื่อ 14 ปีที่แล้ว
ค้นพบคอร์ด 29 เวอร์ชั่น
คิดฮอด - บอดี้สแลม (bodyslam)
เมื่อ 9 ปีที่แล้ว
ค้นพบคอร์ด 1 เวอร์ชั่น
ความเชื่อ - บอดี้สแลม (Bodyslam)
เมื่อ 14 ปีที่แล้ว
ค้นพบคอร์ด 23 เวอร์ชั่น
พูดในใจ - บอดี้สแลม (Bodyslam)
เมื่อ 14 ปีที่แล้ว
ค้นพบคอร์ด 13 เวอร์ชั่น
อากาศ - บอดี้สแลม (Bodyslam)
เมื่อ 15 ปีที่แล้ว
ค้นพบคอร์ด 24 เวอร์ชั่น
คนที่ถูกรัก - บอดี้สแลม (BodySlam)
เมื่อ 14 ปีที่แล้ว
ค้นพบคอร์ด 16 เวอร์ชั่น
เจ็บจนวันนี้ - บอดี้สแลม (Bodyslam)
เมื่อ 14 ปีที่แล้ว
ค้นพบคอร์ด 23 เวอร์ชั่น
นาฬิกาตาย - บอดี้สแลม (Bodyslam)
เมื่อ 12 ปีที่แล้ว
ค้นพบคอร์ด 23 เวอร์ชั่น
ยาพิษ - บอดี้สแลม (BodySlam)
เมื่อ 12 ปีที่แล้ว
ค้นพบคอร์ด 28 เวอร์ชั่น
หวั่นไหว - บอดี้สแลม (Bodyslam)
เมื่อ 16 ปีที่แล้ว
ค้นพบคอร์ด 30 เวอร์ชั่น
ห้ามใจ - บอดี้สแลม (Bodyslam)
เมื่อ 14 ปีที่แล้ว
ค้นพบคอร์ด 24 เวอร์ชั่น
Sticker (สติ๊กเกอร์) - บอดี้สแลม (BODYSLAM)
เมื่อ 9 ปีที่แล้ว
ค้นพบคอร์ด 2 เวอร์ชั่น