คอร์ดเพลง I?m Sorry - เอบีนอร์มอล (เอบี นอร์มอล (AB Normal)

Version 2
แกะโดย ^_^ คนของเธอ
เมื่อ 2 เม.ย.2549,21:36น.
ดู 528 ครั้ง
อ้าจัดไปแล้วน่ะ TAB Solo

1------------------------------------------------------------------------------------------------------
2------------3------3---------3-------------------3-----------------------3-----------------------2
3---------0----------------------------------0-----0------------------0---0------------0---------0
4------4---------------------------------4---------4---------------2------2---------2------------2
5---5---------------------4---------2--------------2-----------------------------0----------------0
6------------------------------------------------------------0----------------------------------------


1----------------------------------------------------------------------------------------------------------
2----------------10---------------------------------10------------------------------------10---------
3-------------------------------------------------------------------------------------------------------
4---11---12--------------------11------12------------------------11---------12----------------
5-----------------------------------------------------------------------------------------------------
6----------------------------------------------------------------------------------------------------

1-------------------------------------------------
2---10------S-----12------10-----8------10
3----9-------S-----11-------9------7-------9
4-------------------------------------------------
5-------------------------------------------------
6-------------------------------------------------

((((((_ หมายเหตุ_ ---S-- _ คือ รูดน่ะ)))))))

หาก Tab solo ของผมผิดพลาดปราการไดก็ติกานได้น่ะ

เราไม่ใช่พระเจ้าที่จาทำไรไห้เหมือนได้ทุกอย่าง

ส่วน Tab ท่อนกลาง จาจัดไปน่ะ
คอร์ดเพลง I?m Sorry

ความคิดเห็นเกี่ยวกับคอร์ดนี้

เวอร์ชั่นทั้งหมดของคอร์ดเพลงนี้

คอร์ดเพลง I?m Sorry

0 | 0
โดย ฟัก -
เมื่อ 13 ปีที่แล้ว

คอร์ดเพลง I?m Sorry

0 | 0
โดย s
เมื่อ 13 ปีที่แล้ว

คอร์ดเพลง I?m Sorry

0 | 0
โดย กฤช
เมื่อ 13 ปีที่แล้ว

คอร์ดเพลง I?m Sorry

0 | 0
โดย SP
เมื่อ 13 ปีที่แล้ว

คอร์ดเพลง I?m Sorry

0 | 0
โดย Animal Planet
เมื่อ 13 ปีที่แล้ว

คอร์ดเพลง I?m Sorry

0 | 0
โดย Steve vai
เมื่อ 13 ปีที่แล้ว

คอร์ดเพลง I?m Sorry

0 | 0
โดย Steve vai
เมื่อ 13 ปีที่แล้ว

คอร์ดเพลง I?m Sorry

0 | 0
โดย Steve vai
เมื่อ 13 ปีที่แล้ว

คอร์ดเพลง I?m Sorry

0 | 0
โดย Steve vai
เมื่อ 13 ปีที่แล้ว

คอร์ดเพลง I?m Sorry

0 | 0
โดย ผู้พิชิต
เมื่อ 13 ปีที่แล้ว

คอร์ดเพลง I?m Sorry

0 | 0
โดย kkk
เมื่อ 13 ปีที่แล้ว

คอร์ดเพลง I?m Sorry

0 | 0
โดย เอ็ม
เมื่อ 13 ปีที่แล้ว

คอร์ดเพลง I?m Sorry

0 | 0
โดย pat nos
เมื่อ 13 ปีที่แล้ว

คอร์ดเพลง I?m Sorry

0 | 0
โดย pat nos
เมื่อ 13 ปีที่แล้ว

คอร์ดเพลง I?m Sorry

0 | 0
โดย ^_^ คนของเธอ
เมื่อ 13 ปีที่แล้ว

คอร์ดเพลง I?m Sorry

0 | 0
โดย ^_^ คนของเธอ
เมื่อ 13 ปีที่แล้ว

คอร์ดเพลง I?m Sorry

0 | 0
โดย ^_^ คนของเธอ
เมื่อ 13 ปีที่แล้ว

เนื้อเพลง I?m Sorry - เอบีนอร์มอล (เอบี นอร์มอล (AB Normal)

บอกตรงๆ ว่าฉันก็เสียใจ
ที่ทำให้เราต้องทะเลาะกัน
ไม่ว่าด้วยเหตุผลนั้นคืออะไร

* คนผิดคือฉันไม่ใช่เธอ
อย่าร้อง อย่าร้องไห้เลยเธอ
หันหน้ามาคุยกันก่อนดีไหม

** ต้องทำยังไง เธอจึงจะยอมหายโกรธ
ต้องทำยังไง เธอจึงจะยกโทษให้ฉัน
อย่าทรมานด้วยการไม่มองหน้ากัน
นึกว่าสงสาร...คนรักกัน ฉันขอโทษ...

ไม่ตั้งใจจะทำร้ายเธอ แต่ก็เผลอทำเธอร้องไห้
ฉันไม่ได้ความจริงๆ ที่รัก...

( * ** )

( ** ** )

ฉันขอโทษ...

Cover เพลงI?m Sorry


ยังไม่มี Cover เพลงนี้

[ ช่วยกันแบ่งปันคลิปเพลงที่คุณเล่นเอง ]

ฟังเพลง I?m Sorry

พูดไม่ค่อยเก่ง - เอบีนอร์มอล (ABnormal)
เมื่อ 14 ปีที่แล้ว
ค้นพบคอร์ด 13 เวอร์ชั่น
ใจน้อย - เอบีนอร์มอล (ABnormal)
เมื่อ 15 ปีที่แล้ว
ค้นพบคอร์ด 49 เวอร์ชั่น
I?m Sorry - เอบีนอร์มอล (เอบี นอร์มอล (AB Normal)
เมื่อ 13 ปีที่แล้ว
ค้นพบคอร์ด 18 เวอร์ชั่น
แฟนฉัน - เอบีนอร์มอล (ABnormal)
เมื่อ 16 ปีที่แล้ว
ค้นพบคอร์ด 15 เวอร์ชั่น
ชายคนหนึ่ง - เอบีนอร์มอล (AB Normal)
เมื่อ 13 ปีที่แล้ว
ค้นพบคอร์ด 5 เวอร์ชั่น
ตัวประกอบ - เอบีนอร์มอล (ABnormal)
เมื่อ 14 ปีที่แล้ว
ค้นพบคอร์ด 8 เวอร์ชั่น
I am Sorry - เอบีนอร์มอล (เอบี นอร์มอล (AB Normal)
เมื่อ 13 ปีที่แล้ว
ค้นพบคอร์ด 10 เวอร์ชั่น
คนไม่ดีก็มีหัวใจ (เพลงประกอบละครคุณชายจำแลง) - เอบีนอร์มอล (ABnormal)
เมื่อ 14 ปีที่แล้ว
ค้นพบคอร์ด 18 เวอร์ชั่น
รักซะอย่าง - เอบีนอร์มอล (เอบี นอร์มอล (AB Normal)
เมื่อ 13 ปีที่แล้ว
ค้นพบคอร์ด 21 เวอร์ชั่น
เรารักกัน - เอบีนอร์มอล (ABnormal)
เมื่อ 15 ปีที่แล้ว
ค้นพบคอร์ด 10 เวอร์ชั่น
ฉันรักเธอ(คิดในใจ) - เอบีนอร์มอล (เอบี นอร์มอล (AB Normal)
เมื่อ 13 ปีที่แล้ว
ค้นพบคอร์ด 11 เวอร์ชั่น
ขอบใจที่พูดความจริง - เอบีนอร์มอล (ABnormal)
เมื่อ 15 ปีที่แล้ว
ค้นพบคอร์ด 5 เวอร์ชั่น
เด็กกว่าแล้วไง - เอบีนอร์มอล (ABnormal)
เมื่อ 15 ปีที่แล้ว
ค้นพบคอร์ด 7 เวอร์ชั่น
เกงในฉัน(ล้อเลียนแฟนฉัน) - เอบีนอร์มอล (ABnormal)
เมื่อ 15 ปีที่แล้ว
ค้นพบคอร์ด 4 เวอร์ชั่น
คำธรรมดา - เอบีนอร์มอล (ABnormal)
เมื่อ 15 ปีที่แล้ว
ค้นพบคอร์ด 8 เวอร์ชั่น
อย่าดีกว่า - เอบีนอร์มอล (ABnormal)
เมื่อ 14 ปีที่แล้ว
ค้นพบคอร์ด 2 เวอร์ชั่น
ต้องการใครบ้างไหม - เอบีนอร์มอล (เอบี นอร์มอล (AB Normal)
เมื่อ 13 ปีที่แล้ว
ค้นพบคอร์ด 4 เวอร์ชั่น
เมื่อวาน วันนี้ พรุ่งนี้ - เอบีนอร์มอล (เอบี นอร์มอล (AB Normal)
เมื่อ 13 ปีที่แล้ว
ค้นพบคอร์ด 5 เวอร์ชั่น
(ไม่)เจ้าชู้... - เอบีนอร์มอล (เอบี นอร์มอล (AB Normal)
เมื่อ 13 ปีที่แล้ว
ค้นพบคอร์ด 3 เวอร์ชั่น
เจ็บใจ - เอบีนอร์มอล (เอบี นอร์มอล (AB Normal)
เมื่อ 13 ปีที่แล้ว
ยังไม่มีคอร์ด