คอร์ดเพลง Intro,Solo คิดถึง - ซิลลี่ ฟูลส์ (Silly Fools)

Version 1
แกะโดย แห้วคุง
เมื่อ 9 ม.ค.2548,10:35น.
ดู 1596 ครั้ง
1----------------------------------------------------------------------12----16---19-----------------------
2-------5--------55/77--------------------------12---14---12-------------------------------------------
3---4------44-----------------------------6---9-------------------------------------------------------------
4----------------------------44/66/99---------------------------------------------------------------------

1----------------------------------11h12---------------------------14---14-------------------------------
2---------17---17-11--12---14-------------12------5--------12--------------12-------------------------
3---16--------------------------------------------4------44-------------------------------------------------

1---------------------------------------------------------12---11-------------------------------11---------
2---------------------------------------------------------------------------12--------12h14---------12---
3------13---13------------------------------------------------------13-------13--------------------------
4---9-------------9---11---9---77---6---7h9------------------------------------------------------------
5-----------------------------------------------------7รูดสายไปจนถึงเฟตที่1------------------------------

1-----------------------------------19---17-----------------------------------------------------------------
2-----------------------------------------------17------------------------------------------------------------
3--------------------------------------------------------------------------------------------------------------
4---------------13---14---16-------------------------------------------------------------------------------
5---14---16-------------------------------------------------------------------------------------------------


แก้ไขSoloคับ
คอร์ดเพลง Intro,Solo คิดถึง

ความคิดเห็นเกี่ยวกับคอร์ดนี้

เวอร์ชั่นทั้งหมดของคอร์ดเพลงนี้

คอร์ดเพลง Intro,Solo คิดถึง

0 | 0
โดย แฟนฉัน
เมื่อ 11 ปีที่แล้ว

คอร์ดเพลง Intro,Solo คิดถึง

0 | 0
โดย jaso
เมื่อ 12 ปีที่แล้ว

คอร์ดเพลง Intro,Solo คิดถึง

0 | 0
โดย โชเล่ บักเต้
เมื่อ 12 ปีที่แล้ว

คอร์ดเพลง Intro,Solo คิดถึง

0 | 0
โดย BLACK SIDE @
เมื่อ 12 ปีที่แล้ว

คอร์ดเพลง Intro,Solo คิดถึง

0 | 0
โดย sb
เมื่อ 12 ปีที่แล้ว

คอร์ดเพลง Intro,Solo คิดถึง

0 | 0
โดย wix
เมื่อ 12 ปีที่แล้ว

คอร์ดเพลง Intro,Solo คิดถึง

0 | 0
โดย Dong
เมื่อ 13 ปีที่แล้ว

คอร์ดเพลง Intro,Solo คิดถึง

0 | 0
โดย Dong
เมื่อ 13 ปีที่แล้ว

คอร์ดเพลง Intro,Solo คิดถึง

0 | 0
โดย Dong
เมื่อ 13 ปีที่แล้ว

คอร์ดเพลง Intro,Solo คิดถึง

0 | 0
โดย กล้วยไข่คุง บ.จ.ม.27
เมื่อ 13 ปีที่แล้ว

คอร์ดเพลง Intro,Solo คิดถึง

0 | 0
โดย เด็กโคราช อย่ากว่ากันนะ
เมื่อ 13 ปีที่แล้ว

คอร์ดเพลง Intro,Solo คิดถึง

0 | 0
โดย กาเมร่า
เมื่อ 13 ปีที่แล้ว

คอร์ดเพลง Intro,Solo คิดถึง

0 | 0
โดย กาเมร่า
เมื่อ 13 ปีที่แล้ว

คอร์ดเพลง Intro,Solo คิดถึง

0 | 0
โดย เติ้ล silly fools
เมื่อ 13 ปีที่แล้ว

คอร์ดเพลง Intro,Solo คิดถึง

0 | 0
โดย tuyier5555555555555555555555555555
เมื่อ 13 ปีที่แล้ว

คอร์ดเพลง Intro,Solo คิดถึง

0 | 0
โดย บอย+วัดเบญ
เมื่อ 14 ปีที่แล้ว

คอร์ดเพลง Intro,Solo คิดถึง

0 | 0
โดย แห้วคุง
เมื่อ 14 ปีที่แล้ว

เนื้อเพลง Intro,Solo คิดถึง - ซิลลี่ ฟูลส์ (Silly Fools)

Intro เล่นวนอย่างงี้ทั้งเพลงเลยครับ

I
I
I
I
I
I

I
I
I
I
I

วนตั้งแต่ต้น3ครั้ง
I
I
I
I
I
I

III
III
III
III
III
III

I
I
I
I
I
I

I
I
I
I
I
I
กลับไปเล่นใหม่อีกหนึ่งรอบตั้งแต่ต้นเลย

นี่ Solo



55/

44/66/

11h




12h

7h
7รูดสายไปจนถึงเฟตที่







Cover เพลงIntro,Solo คิดถึง


ยังไม่มี Cover เพลงนี้

[ ช่วยกันแบ่งปันคลิปเพลงที่คุณเล่นเอง ]

ฟังเพลง Intro,Solo คิดถึง

วัดใจ - ซิลลี่ ฟูลส์ (Silly Fools)
เมื่อ 15 ปีที่แล้ว
ค้นพบคอร์ด 48 เวอร์ชั่น
ขี้หึง - ซิลลี่ ฟูลส์ (Silly Fools)
เมื่อ 13 ปีที่แล้ว
ค้นพบคอร์ด 10 เวอร์ชั่น
ผิดที่ไว้ใจ - ซิลลี่ ฟูลส์ (Silly Fools)
เมื่อ 12 ปีที่แล้ว
ค้นพบคอร์ด 18 เวอร์ชั่น
โง่ - ซิลลี่ ฟูลส์ (Silly Fools)
เมื่อ 11 ปีที่แล้ว
ค้นพบคอร์ด 13 เวอร์ชั่น
น้ำลาย - ซิลลี่ ฟูลส์ (Silly Fools)
เมื่อ 15 ปีที่แล้ว
ค้นพบคอร์ด 49 เวอร์ชั่น
จิ๊จ๊ะ - ซิลลี่ ฟูลส์ (Silly Fools)
เมื่อ 12 ปีที่แล้ว
ค้นพบคอร์ด 12 เวอร์ชั่น
เมื่อรักฉันเกิด - ซิลลี่ ฟูลส์ (Silly Fools)
เมื่อ 15 ปีที่แล้ว
ค้นพบคอร์ด 12 เวอร์ชั่น
Intro,Solo คิดถึง - ซิลลี่ ฟูลส์ (Silly Fools)
เมื่อ 14 ปีที่แล้ว
ค้นพบคอร์ด 17 เวอร์ชั่น
เพียงรัก (ท่อนเร็ว) - ซิลลี่ ฟูลส์ (Silly Fools)
เมื่อ 15 ปีที่แล้ว
ค้นพบคอร์ด 16 เวอร์ชั่น
เพลงนี้เกี่ยวกับความรัก - ซิลลี่ ฟูลส์ (Silly Fools)
เมื่อ 12 ปีที่แล้ว
ค้นพบคอร์ด 12 เวอร์ชั่น
เบื่อ - ซิลลี่ ฟูลส์ (Silly Fools)
เมื่อ 15 ปีที่แล้ว
ค้นพบคอร์ด 7 เวอร์ชั่น
Hey - ซิลลี่ ฟูลส์ (Silly Fools)
เมื่อ 14 ปีที่แล้ว
ค้นพบคอร์ด 9 เวอร์ชั่น
ไม่ - ซิลลี่ ฟูลส์ (Silly Fools)
เมื่อ 13 ปีที่แล้ว
ค้นพบคอร์ด 9 เวอร์ชั่น
คนที่ฆ่าฉัน - ซิลลี่ ฟูลส์ (Silly Fools)
เมื่อ 2020 ปีที่แล้ว
ค้นพบคอร์ด 10 เวอร์ชั่น
intro น้ำลาย - ซิลลี่ ฟูลส์ (Silly Fools)
เมื่อ 15 ปีที่แล้ว
ค้นพบคอร์ด 8 เวอร์ชั่น
บ้าบอ - ซิลลี่ ฟูลส์ (Silly Fools)
เมื่อ 13 ปีที่แล้ว
ค้นพบคอร์ด 17 เวอร์ชั่น
Stay Away - ซิลลี่ ฟูลส์ (Silly
เมื่อ 12 ปีที่แล้ว
ค้นพบคอร์ด 8 เวอร์ชั่น
แกล้ง - ซิลลี่ ฟูลส์ (Silly Fools)
เมื่อ 12 ปีที่แล้ว
ค้นพบคอร์ด 12 เวอร์ชั่น
อย่าบอกว่ารัก - ซิลลี่ ฟูลส์ (Silly Fools)
เมื่อ 12 ปีที่แล้ว
ค้นพบคอร์ด 8 เวอร์ชั่น
เหนื่อยแล้ว... - ซิลลี่ ฟูลส์
เมื่อ 10 ปีที่แล้ว
ค้นพบคอร์ด 3 เวอร์ชั่น