คอร์ดเพลง LOVE - พาราด็อกซ์ (Paradox)

Version 4
แกะโดย ลิก อ.ฟ.
เมื่อ 9 ก.ค.2550,19:00น.
ดู 412 ครั้ง



หลังจบท่อนคําว่า.....ฉันอยากพบเธอ

C
------------------------------------------------------------------------------
------1----0----------------------------------------------------------------
------------------2-----0---------------------------------------------------
--------------------------------------3---3----------2----2----------------
------------------------------------------------------------------------------
------------------------------------------------------------------------------

------------------------------------------------------------------------------
------------------------------------------------------------------------------
-------------------------------------------0---------------------------------
---------------------------0-----2-------------------------------------------
----------0---2---3---------------------------------------------------------
-----3------------------------------------------------------------------------
C
------------------------------------------------------------------------------
-----1---1------0---0------------------------------------------------------
---------------------------2------0---0-----------------------0------------
-----------------------------------------------3----3-------------------------
------------------------------------------------------------------------------
------------------------------------------------------------------------------


คอร์ดเพลง LOVE

ความคิดเห็นเกี่ยวกับคอร์ดนี้

เนื้อเพลง LOVE - พาราด็อกซ์ (Paradox)

เพลง : LOV
ศิลปิน : Paradox
อัลบั้ม : Summer

* โอ้ความรัก โปรดมองฉัน

บางเวลา เราพบกันเมื่อวันช้ำใจ

เธอเข้ามา โอบกอดฉันไว้แผ่วเบา

โอ้ความรัก ที่อ่อนหวาน

โปรยความงาม พาหัวใจฉันลอยล่องไป

ดูซิดู เธออยู่ไหน เจ้าความรักฉันอยาก(พบ)(เจอ)เธอ

(ดนตรี)


มองจันทราเวลาฟ้าดำ บอกทะเลฉันคงเข้าใจ

มีความงามขึ้นมาครั้งใด เป็นพบเธอ อยู่ข้างใน

เธอทำให้โลกสดใส และก็ทำให้ฉันเศร้าใจ

เปลี่ยนแปลงชีวิตฉันได้ เป็นเพราะเธอ

(ซ้ำ*)


ลา ลา ลา ....................(ซ้ำ*)

(ดนตรี)


รักเธอโอ้ความรัก เย.. เย.. เธอทำได้ทุกๆอย่าง

โอ้ความรัก ฉันรักเธอ

Cover เพลงLOVE


ยังไม่มี Cover เพลงนี้

[ ช่วยกันแบ่งปันคลิปเพลงที่คุณเล่นเอง ]

ฟังเพลง LOVE

ฤดูร้อน - พาราด็อกซ์ (Paradox)
เมื่อ 15 ปีที่แล้ว
ค้นพบคอร์ด 41 เวอร์ชั่น
เธอที่รัก(วัยอลวน4 ตั้ม โอ๋รีเทอนร์) - พาราด็อกซ์ (Paradox)
เมื่อ 14 ปีที่แล้ว
ค้นพบคอร์ด 20 เวอร์ชั่น
คนบนฟ้า - พาราด็อกซ์ (Paradox)
เมื่อ 8 ปีที่แล้ว
ค้นพบคอร์ด 4 เวอร์ชั่น
มีแต่เธอ - พาราด็อกซ์ (PARADOX)
เมื่อ 15 ปีที่แล้ว
ค้นพบคอร์ด 1 เวอร์ชั่น
Sexy (เซ็กซี่) - พาราด็อกซ์ (Paradox)
เมื่อ 16 ปีที่แล้ว
ค้นพบคอร์ด 10 เวอร์ชั่น
กอดฉันไว้ (Ost.สามชุก) - พาราด็อกซ์ (Paradox)
เมื่อ 10 ปีที่แล้ว
ค้นพบคอร์ด 1 เวอร์ชั่น
ดาว - พาราด็อกซ์ (PARADOX)
เมื่อ 15 ปีที่แล้ว
ค้นพบคอร์ด 17 เวอร์ชั่น
ใครสักคน - พาราด็อกซ์ (Paradox)
เมื่อ 12 ปีที่แล้ว
ค้นพบคอร์ด 11 เวอร์ชั่น
กรงทอง - พาราด็อกซ์ (Paradox)
เมื่อ 15 ปีที่แล้ว
ค้นพบคอร์ด 10 เวอร์ชั่น
จิ๊บ ร.ด. - พาราด็อกซ์ (Paradox)
เมื่อ 12 ปีที่แล้ว
ค้นพบคอร์ด 3 เวอร์ชั่น
ผงาดง้ำค้ำโลก - พาราด็อกซ์ (Paradox)
เมื่อ 13 ปีที่แล้ว
ค้นพบคอร์ด 13 เวอร์ชั่น
ทาส - พาราด็อกซ์ (Paradox)
เมื่อ 15 ปีที่แล้ว
ค้นพบคอร์ด 16 เวอร์ชั่น
นักมายากล - พาราด็อกซ์ (PARADOX)
เมื่อ 15 ปีที่แล้ว
ค้นพบคอร์ด 14 เวอร์ชั่น
เพ้อ - พาราด็อกซ์ (PARADOX)
เมื่อ 15 ปีที่แล้ว
ค้นพบคอร์ด 3 เวอร์ชั่น
LOVE - พาราด็อกซ์ (Paradox)
เมื่อ 15 ปีที่แล้ว
ค้นพบคอร์ด 9 เวอร์ชั่น
เป็นวัยรุ่นมันเหนื่อย - พาราด็อกซ์ (Paradox)
เมื่อ 14 ปีที่แล้ว
ค้นพบคอร์ด 6 เวอร์ชั่น
อยู่ในใจ - พาราด็อกซ์ (Paradox)
เมื่อ 15 ปีที่แล้ว
ค้นพบคอร์ด 3 เวอร์ชั่น
ขอ - พาราด็อกซ์ (Paradox)
เมื่อ 15 ปีที่แล้ว
ค้นพบคอร์ด 4 เวอร์ชั่น
3มิติ - พาราด็อกซ์ (Paradox)
เมื่อ 15 ปีที่แล้ว
ค้นพบคอร์ด 14 เวอร์ชั่น
ไก่ - พาราด็อกซ์ (PARADOX)
เมื่อ 15 ปีที่แล้ว
ค้นพบคอร์ด 6 เวอร์ชั่น

คอร์ดเพลงใหม่

7 | 1/0

กอดเสาเถียง - ปรีชา ปัดภัย

คอร์ดโดย สมัครฟรี ไม่เสียค่าใช้จ่าย
เมื่อ ชั่วโมงก่อน
10 | 0/0

จีบสาวฉาวเทือน - เจนนี่ - ลิลลี่ ได้หมดถ้าสดชื่น Feat.วู้ดดี้

คอร์ดโดย สมัครฟรี ไม่เสียค่าใช้จ่าย
เมื่อ 2 ชั่วโมง
43 | 1/0

เจ็บหนักวิทยา - เบลล์ นิภาดา

คอร์ดโดย สมัครฟรี ไม่เสียค่าใช้จ่าย
เมื่อ 2 วันก่อน
54 | 0/0

ถ่าเจ้ากลับมา - ป๊อป นพรัตน์

คอร์ดโดย ศิริศักดิ์ ฝ่ายวงค์
เมื่อ 4 วันก่อน
132 | 0/0

Ver.2 มากกว่าฝูงหมา - กางเกง

คอร์ดโดย สไมล์ เดวิลล์ ปีศาจอารมณ์ดี
เมื่อ 7 วันก่อน
56 | 1/0

Ver.5 ล้า - อะเลิทร์(Alert)

คอร์ดโดย Naternet Bassist
เมื่อ 7 วันก่อน
95 | 0/0

Ver.2 ผีบ้าถามทาง - บิ๊กวัน กันทรลักษ์

คอร์ดโดย สไมล์ เดวิลล์ ปีศาจอารมณ์ดี
เมื่อ 8 วันก่อน