คอร์ดเพลง Missed Call - ซินญอรินตา(Senorita)

Version 5
แกะโดย อ๋อง
เมื่อ 8 มิ.ย.2549,10:56น.
ดู 564 ครั้ง
Solo  Missed Call

1-------------------------------6p7-6--6-7-------------------------------10------------------------------
2---------3-4--6s7-6-3-3----------7-----6s7-7-8-7--7-8-7-----7-----7-8-------------------------
3-----3-5----3--------------2-----------------------------7-------7-7------------7-7--------------------
4-3-5-------------------------------------------------------------------------------------7-6-5-3-1-3-1--
5--------------------------------------------------------------------------------------------------------------
6--------------------------------------------------------------------------------------------------------------

1---------------------------------------------9-8-6--3-4-6-3-------------
2-----------------------------------3-4-6-8-------6-----------4-4-------
3--------------0-1-2-1-0-1-3-5------------------------------------------
4------0-1-2---------------------------------------------------------------
5-1-2----------------------------------------------------------------------
6----------------------------------------------------------------------------


1------11-----11----11----11-----11------13------13------13------13------13-------------
2-8h9---8h9---8h9--8h9---8h9---9h11--9h11---9h11--9h11---9h11----------------


1---------18--------18--------18--------18--------18--18-18-16-15-16-15--------13s15--
2-15h16--15h16---15h16---15h16---15h16--16-------------------------16-11-----------

**
S= slide
H= hummer on

วันนี้ว่างเรยแกะให้ก่อนไป รร.
ถูกผิดติชมได้นะครับแก้ให้ด้วย กว่าจะแกะได้เหนื่อยเจงๆ
คอร์ดเพลง Missed Call

ความคิดเห็นเกี่ยวกับคอร์ดนี้

เนื้อเพลง Missed Call - ซินญอรินตา(Senorita)




intro: 4time



นานไป ไม่ดีเลยเ เราโกรธกันไม่พูดจา



โทรไป ไม่รับเลย ยังตั้งใจจะหนีหน้า



คนดี ฉันมันแย่ ทำให้เธอเอือมระอา



ดวงใจ ฉันทุกข์ทน วอนเพียงเธอจะกลับมา



*เฝ้าโทรหาอยากพูดจาให้เข้าใจ โปรดรับฟังเสียงของคนรักเธอจะได้ไหม



** สุดที่รักถ้าโทรมาช่วยรับหน่อย อย่าปล่อยให้คอยน้ำตาปรอยด้วยใจรอ



สุดที่รักโทรมาตั้งใจจะมาง้อ อย่าปล่อยให้ท้อให้รอนานๆอย่างนี้เลย



ผิดไปแล้ว



คืนกัน อย่าทิ้งนาน ใจจะพาลยิ่งระบม



คืนวัน ช่างเหงาใจ เหมือนไม่มีเธอชื่นชม



(ซ้ำ *,**)

สุดที่รักถ้าโทรมาช่วยรับหน่อย อย่าปล่อยให้คอยน้ำตาปรอยด้วยใจรอ

สุดที่รักโทรมาตั้งใจจะมาง้อ อย่าปล่อยให้ท้อให้รอนานๆอย่างนี้เลย....

สุดที่รักถ้าโทรมาช่วยรับหน่อย อย่าปล่อยให้คอยน้ำตาปรอยด้วยใจรอ

สุดที่รักโทรมาตั้งใจจะมาง้อ อย่าปล่อยให้ท้อให้รอนานๆอย่างนี้เลย....

ฮื่อ ฮือ หืม....อย่าปล่อยคนรักให้ทรมานอย่างนี้เลย ผิดไปแล้ว......



เพลงนี้เพราะดีนะครับ ทำนองก็น่ารัก ช่วยวิจารกันด้วยนะครับ


Cover เพลงMissed Call


ยังไม่มี Cover เพลงนี้

[ ช่วยกันแบ่งปันคลิปเพลงที่คุณเล่นเอง ]

ฟังเพลง Missed Call