คอร์ดเพลง Night Life - โปเตโต้ (Potato)

Version 4
แกะโดย มือใหม่หัดแกะ
เมื่อ 14 มิ.ย.2550,22:05น.
ดู 1138 ครั้ง

ท่อน solo ครับ มั่วๆ แต่ก้อลองดูเผื่อมีคายแก้ให้ถูก

1----------------------------------------------------------------------
2----------------------------------------------------------------------
3---6p4------------------------------------------4------------------
4--------6p4--------------------------4---6p4-4--6p4h6-6/---
5-------------6p4--42-----2-4/6--------------------------------
6-------------------------2-4-----------------------------------------

1---------------------------------------------------------------------
2------7-----------------------------------------7-7-7-9-9-9-9--
3--/8----86-----64----x-x-4/6-4---/8----------8-8-8-8--
4----------------6----------x-x-4/6-4-----------------------------

ได้แค่นี้แหละครับ
คอร์ดเพลง Night Life

ความคิดเห็นเกี่ยวกับคอร์ดนี้

เนื้อเพลง Night Life - โปเตโต้ (Potato)



ฮู้... เอ๊เอ่เอ๊เอ

ค่ำคืนที่ดีอย่างวันนี้ ช่างดูน่าเป็นใจ

ขอใครสักคนจะได้ไหม ให้ใจได้รุมร้อน

เห็นเธอก็ยืนอยู่ตรงนี้ท่าทีไม่มีใคร

ต้องการสักคนเคียงข้างไหม ให้เป็นฉันได้หรือเปล่า

* อื๊อ ในคืนที่มี แต่แสงแพรวพราว ส่องตรงมาที่เราสอง

เหมือนบรรยากาศมันพาให้ใจเรานั้นพร้อม

** โอว คนดีเธอในวันนี้ สักนิดให้เราได้ใกล้กัน

ให้เธอได้รักกับฉันมันจะดีมั๊ย

โอ๊ว จากคืนนี้เธอมีฉัน พรุ่งนี้ก็คงมีเรา

ให้ฉันและเธอไม่เหงาเราก็คงสุขใจ...( อ๊าไอย...เย้เอ่เอ๊เอ เอ๋ ฮู้)


ก็ขออภัยกับเธอไว้ฉันมันคนใจร้อน

ต้องการสักคนเคียงข้างไหม ให้เป็นฉันได้หรือเปล่า


*,**

solo


*,**


ก็คงไม่เหงา สุขหัวใจ... เย้เอ่เอ๊เอ เอ๋ ฮู้

Cover เพลงNight Life


ยังไม่มี Cover เพลงนี้

[ ช่วยกันแบ่งปันคลิปเพลงที่คุณเล่นเอง ]

ฟังเพลง Night Life

เธอยัง - โปเตโต้ (Potato)
เมื่อ 8 ปีที่แล้ว
ค้นพบคอร์ด 7 เวอร์ชั่น
แพ้ใจ - โปเตโต้ (POTATO)
เมื่อ 7 ปีที่แล้ว
ค้นพบคอร์ด 4 เวอร์ชั่น
แชร์ (Share) - โปเตโต้ (Potato)
เมื่อ 10 ปีที่แล้ว
ค้นพบคอร์ด 1 เวอร์ชั่น
ไม่ให้เธอไป - โปเตโต้ (Potato)
เมื่อ 15 ปีที่แล้ว
ค้นพบคอร์ด 28 เวอร์ชั่น
ปากดี - โปเตโต้ (Potato)
เมื่อ 13 ปีที่แล้ว
ค้นพบคอร์ด 41 เวอร์ชั่น
รักเธอไปทุกวัน - โปเตโต้ (Potato)
เมื่อ 11 ปีที่แล้ว
ค้นพบคอร์ด 13 เวอร์ชั่น
ยิ่งใกล้ยิ่งเจ็บ - โปเตโต้ (Potato)
เมื่อ 14 ปีที่แล้ว
ค้นพบคอร์ด 6 เวอร์ชั่น
ขอบคุณที่รักกัน - โปเตโต้ (Potato)
เมื่อ 13 ปีที่แล้ว
ค้นพบคอร์ด 26 เวอร์ชั่น
ไม่รู้จะอธิบายยังไง - โปเตโต้ (POtATo)
เมื่อ 8 ปีที่แล้ว
ค้นพบคอร์ด 1 เวอร์ชั่น
อารมณ์สีเทา - โปเตโต้(Potato)
เมื่อ 11 ปีที่แล้ว
ค้นพบคอร์ด 10 เวอร์ชั่น
หวังดีเสมอ - โปเตโต้ (Potato)
เมื่อ 13 ปีที่แล้ว
ค้นพบคอร์ด 10 เวอร์ชั่น
ภาษากาย - โปเตโต้ (Potato)
เมื่อ 13 ปีที่แล้ว
ค้นพบคอร์ด 17 เวอร์ชั่น
กล้าพอไหม - โปเตโต้ (Potato)
เมื่อ 2020 ปีที่แล้ว
ค้นพบคอร์ด 20 เวอร์ชั่น
เพียงพอ - โปเตโต้ (Potato)
เมื่อ 12 ปีที่แล้ว
ค้นพบคอร์ด 34 เวอร์ชั่น
ขอบคุณที่รักกัน(Acoustic) - โปเตโต้ (Potato)
เมื่อ 13 ปีที่แล้ว
ค้นพบคอร์ด 17 เวอร์ชั่น
นี่แหละความเสียใจ - โปเตโต้ (Potato)
เมื่อ 12 ปีที่แล้ว
ค้นพบคอร์ด 39 เวอร์ชั่น
ชีวิตที่ขาดเธอ - โปเตโต้(potato)
เมื่อ 12 ปีที่แล้ว
ค้นพบคอร์ด 10 เวอร์ชั่น
ฉันคิดถึงเธอ - โปเตโต้ (POTATO)
เมื่อ 8 ปีที่แล้ว
ค้นพบคอร์ด 1 เวอร์ชั่น
คำตอบของหัวใจ - โปเตโต้ (Potato)
เมื่อ 11 ปีที่แล้ว
ค้นพบคอร์ด 21 เวอร์ชั่น
ทนพิษบาดแผลไม่ไหว - โปเตโต้ (Potato)
เมื่อ 10 ปีที่แล้ว
ค้นพบคอร์ด 6 เวอร์ชั่น