คอร์ดเพลง intro น้ำลาย - ซิลลี่ ฟูลส์ (Silly Fools)

Version 8
แกะโดย รุต สามเสน
เมื่อ 5 ต.ค.2549,01:15น.
ดู 527 ครั้ง
Solo
1.)-------------------------------------------------------------------------------------------------------------
2.)--------------------15-------------------------------------------------------------------------------------
3.)--------------------------------------16------------16---------------------------------------------------
4.)--/17-17--19-----------17-19--------17-19-------19--17-----16-17-16-17-16--12---14--
5.)------------------------------------------------------------------------------------------------------------
6.)------------------------------------------------------------------------------------------------------------


1.)------------------------------------------------------------------------------------------------------------
2.)---------8-----8/10-----12-12-------8------10^v-----12--13p12---10----------------15-----
3.)---/7------7-------------------------7-----7---------------------------------------11--12------------
4.)-----------------------------------------------------------------------------------------------------------
5.)-----------------------------------------------------------------------------------------------------------
6.)-----------------------------------------------------------------------------------------------------------


1.)-----------------------------------------------------------------------------------------------------------
2.)-------------17-----------------15---------------15------------------------19h20--19p17~-----
3.)--12/14-------------------------------------------------16h19--17-16----------------------------
4.)-----------------------16-17----------17/19---------------------------------------------------------
5.)----------------------------------------------------------------------------------------------------------
6.)----------------------------------------------------------------------------------------------------------
คำอธิบาย
^v = ดันสายขึ้นแล้วลง
h = hammer on
p = pull off
/ = slide
ลองเล่นดู น่าจะเหมือนน่ะ
คอร์ดเพลง intro น้ำลาย

ความคิดเห็นเกี่ยวกับคอร์ดนี้

เนื้อเพลง intro น้ำลาย - ซิลลี่ ฟูลส์ (Silly Fools)

น้ำลาย ซิลลี่ ฟูลล์

Intro :


เพียงแค่เธอสบตา เพียงแค่เธอผ่านมา

แค่เพียงได้เคียงข้าง ได้ยินเสียงแค่บางๆ ทำให้ ใจสั่นสะท้าน

แต่เธอทำให้ต้องผิดหวัง ตรงที่เธอบอกฉัน

ว่ามันคงไม่มี่วัน ที่เรานั้นได้คู่กัน ก็เพราะเรื่องราวของฉัน


* บ้างก็ว่าฉันเป็นคนอย่างนั้น บ้างก็ว่าฉันเคยทำอย่างนี้

ว่ากันว่าฉันเป็นคนไม่ดี ว่าแต่ว่าไม่เคยพูดกับฉันซักที


** สรุปว่าฉันนั้นดูไม่ดี ทั้งที่เธอไม่ดู

พอท้าให้เธอได้ดู เธอก็ดันรู้ดีว่าฉันเป็นอย่างไร จากน้ำลายของใครต่อใคร

( ซ้ำ * )


เพียงแค่เธอบอกมา ว่าเธอเห็นมันด้วยสองตา

ว่าที่ฉันได้ทำไป ได้ทำร้ายหัวใจใคร ไม่ใช่เรื่องราวของฉัน

( ซ้ำ *, **, ** )


แปลกแต่จริงที่เธอจะทิ้งกันไปเพราะเหตุนั้น

แปลกแต่จริงที่เราตัดสินกันไปอย่างนั้น

Solo

( ซ้ำ *, **, ** )



Intro

3=4
4=
5=

ใครมีที่ 2ช่วยบอกที

Cover เพลงintro น้ำลาย


ยังไม่มี Cover เพลงนี้

[ ช่วยกันแบ่งปันคลิปเพลงที่คุณเล่นเอง ]

ฟังเพลง intro น้ำลาย

วัดใจ - ซิลลี่ ฟูลส์ (Silly Fools)
เมื่อ 15 ปีที่แล้ว
ค้นพบคอร์ด 48 เวอร์ชั่น
ขี้หึง - ซิลลี่ ฟูลส์ (Silly Fools)
เมื่อ 13 ปีที่แล้ว
ค้นพบคอร์ด 10 เวอร์ชั่น
ผิดที่ไว้ใจ - ซิลลี่ ฟูลส์ (Silly Fools)
เมื่อ 12 ปีที่แล้ว
ค้นพบคอร์ด 18 เวอร์ชั่น
โง่ - ซิลลี่ ฟูลส์ (Silly Fools)
เมื่อ 11 ปีที่แล้ว
ค้นพบคอร์ด 13 เวอร์ชั่น
น้ำลาย - ซิลลี่ ฟูลส์ (Silly Fools)
เมื่อ 15 ปีที่แล้ว
ค้นพบคอร์ด 49 เวอร์ชั่น
จิ๊จ๊ะ - ซิลลี่ ฟูลส์ (Silly Fools)
เมื่อ 12 ปีที่แล้ว
ค้นพบคอร์ด 12 เวอร์ชั่น
เมื่อรักฉันเกิด - ซิลลี่ ฟูลส์ (Silly Fools)
เมื่อ 15 ปีที่แล้ว
ค้นพบคอร์ด 12 เวอร์ชั่น
Intro,Solo คิดถึง - ซิลลี่ ฟูลส์ (Silly Fools)
เมื่อ 14 ปีที่แล้ว
ค้นพบคอร์ด 17 เวอร์ชั่น
เพียงรัก (ท่อนเร็ว) - ซิลลี่ ฟูลส์ (Silly Fools)
เมื่อ 15 ปีที่แล้ว
ค้นพบคอร์ด 16 เวอร์ชั่น
เพลงนี้เกี่ยวกับความรัก - ซิลลี่ ฟูลส์ (Silly Fools)
เมื่อ 12 ปีที่แล้ว
ค้นพบคอร์ด 12 เวอร์ชั่น
เบื่อ - ซิลลี่ ฟูลส์ (Silly Fools)
เมื่อ 15 ปีที่แล้ว
ค้นพบคอร์ด 7 เวอร์ชั่น
Hey - ซิลลี่ ฟูลส์ (Silly Fools)
เมื่อ 14 ปีที่แล้ว
ค้นพบคอร์ด 9 เวอร์ชั่น
ไม่ - ซิลลี่ ฟูลส์ (Silly Fools)
เมื่อ 13 ปีที่แล้ว
ค้นพบคอร์ด 9 เวอร์ชั่น
คนที่ฆ่าฉัน - ซิลลี่ ฟูลส์ (Silly Fools)
เมื่อ 2020 ปีที่แล้ว
ค้นพบคอร์ด 10 เวอร์ชั่น
intro น้ำลาย - ซิลลี่ ฟูลส์ (Silly Fools)
เมื่อ 15 ปีที่แล้ว
ค้นพบคอร์ด 8 เวอร์ชั่น
บ้าบอ - ซิลลี่ ฟูลส์ (Silly Fools)
เมื่อ 13 ปีที่แล้ว
ค้นพบคอร์ด 17 เวอร์ชั่น
Stay Away - ซิลลี่ ฟูลส์ (Silly
เมื่อ 12 ปีที่แล้ว
ค้นพบคอร์ด 8 เวอร์ชั่น
แกล้ง - ซิลลี่ ฟูลส์ (Silly Fools)
เมื่อ 12 ปีที่แล้ว
ค้นพบคอร์ด 12 เวอร์ชั่น
อย่าบอกว่ารัก - ซิลลี่ ฟูลส์ (Silly Fools)
เมื่อ 12 ปีที่แล้ว
ค้นพบคอร์ด 8 เวอร์ชั่น
เหนื่อยแล้ว... - ซิลลี่ ฟูลส์
เมื่อ 10 ปีที่แล้ว
ค้นพบคอร์ด 3 เวอร์ชั่น