คอร์ดเพลง เธอจะอยู่กับฉันตลอดไป - แคลช (Clash)

Version 5
แกะโดย ไวท์
เมื่อ 2 เม.ย.2549,16:55น.
ดู 643 ครั้ง
soloคับ!!!(แนะนำด้วยนะครับ)
1----------------------------------------------------------------------------------------
2---------------------15^17-15------19ยกสาย1/2)-19--------19ยกสาย1/2)------19-----17
3---------14-16/17--------------------------------------------------------------------
4-16^17-------------------------------------------------------------------------------
5---------------------------------------------------------------------------------------
6---------------------------------------------------------------------------------------

1------17ยกสายfull)---17ยกสายfull)----17-15----------------------------------------------
2--15---------------------------------------------------------22ยกสายfull)-22-20-20----17-17-17^15-15
3---------------------------------------------------------------------------------------
4---------------------------------------------------------------------------------------
5---------------------------------------------------------------------------------------
6---------------------------------------------------------------------------------------

1----------------------------------------------------------------------------------------12^14^15
2-15ยกสาย1/2-------13--12-----------------------------------------12^13^15
3--------------------------------------14-------------------------12^14
4----------------------------------------------------12^14^16
5---------------------------------------------------------------------------------------
6---------------------------------------------------------------------------------------

1-----------20ยกสายfull)--20ยกสายfull)---20ยกสายfull)------20ยกสายfull3)-------
2----------------------------------------------------------------------------------------
3----19---------------------------------------------------------------------------------------
4---------------------------------------------------------------------------------------
5---------------------------------------------------------------------------------------
6---------------------------------------------------------------------------------------

1-20----19-20--22-17/19--------------------------------------------------
2----------------------------------20--20-------------------20ยกสายfull)^20-
3-----------------------------------------------------------19--
4---------------------------------------------------------------------------------------
5---------------------------------------------------------------------------------------
6---------------------------------------------------------------------------------------

ขอบคุณครับ+
คอร์ดเพลง เธอจะอยู่กับฉันตลอดไป

ความคิดเห็นเกี่ยวกับคอร์ดนี้

เวอร์ชั่นทั้งหมดของคอร์ดเพลงนี้

คอร์ดเพลง เธอจะอยู่กับฉันตลอดไป

8 | 0
โดย ตัวค่อ(หนองหารหลวงclub)
เมื่อ 13 ปีที่แล้ว

คอร์ดเพลง เธอจะอยู่กับฉันตลอดไป

0 | 0
โดย ham
เมื่อ 5 ปีที่แล้ว

คอร์ดเพลง เธอจะอยู่กับฉันตลอดไป

0 | 0
โดย แพนด้า จาก ม.ศ.
เมื่อ 13 ปีที่แล้ว

คอร์ดเพลง เธอจะอยู่กับฉันตลอดไป

0 | 0
โดย T-o-t-o K-u-n-g
เมื่อ 14 ปีที่แล้ว

คอร์ดเพลง เธอจะอยู่กับฉันตลอดไป

0 | 0
โดย การ์ตูน
เมื่อ 14 ปีที่แล้ว

คอร์ดเพลง เธอจะอยู่กับฉันตลอดไป

0 | 0
โดย เด็กบ้าCLASH
เมื่อ 14 ปีที่แล้ว

คอร์ดเพลง เธอจะอยู่กับฉันตลอดไป

0 | 0
โดย โอ
เมื่อ 14 ปีที่แล้ว

คอร์ดเพลง เธอจะอยู่กับฉันตลอดไป

0 | 0
โดย กูอะ
เมื่อ 14 ปีที่แล้ว

คอร์ดเพลง เธอจะอยู่กับฉันตลอดไป

0 | 0
โดย [Toon]-Alone
เมื่อ 14 ปีที่แล้ว

คอร์ดเพลง เธอจะอยู่กับฉันตลอดไป

0 | 0
โดย [Toon]-Alone
เมื่อ 14 ปีที่แล้ว

คอร์ดเพลง เธอจะอยู่กับฉันตลอดไป

0 | 0
โดย .
เมื่อ 14 ปีที่แล้ว

คอร์ดเพลง เธอจะอยู่กับฉันตลอดไป

0 | 0
โดย สูบมานาน
เมื่อ 14 ปีที่แล้ว

คอร์ดเพลง เธอจะอยู่กับฉันตลอดไป

0 | 0
โดย ไรหว่า
เมื่อ 15 ปีที่แล้ว

คอร์ดเพลง เธอจะอยู่กับฉันตลอดไป

0 | 0
โดย ไรหว่า
เมื่อ 15 ปีที่แล้ว

คอร์ดเพลง เธอจะอยู่กับฉันตลอดไป

0 | 0
โดย พี่(พล)วงแคลช
เมื่อ 15 ปีที่แล้ว

คอร์ดเพลง เธอจะอยู่กับฉันตลอดไป

0 | 0
โดย Mc_Spidermonky
เมื่อ 15 ปีที่แล้ว

คอร์ดเพลง เธอจะอยู่กับฉันตลอดไป

0 | 0
โดย เจคับเนย
เมื่อ 15 ปีที่แล้ว

คอร์ดเพลง เธอจะอยู่กับฉันตลอดไป

0 | 0
โดย Bert
เมื่อ 15 ปีที่แล้ว

คอร์ดเพลง เธอจะอยู่กับฉันตลอดไป

0 | 0
โดย ไวท์
เมื่อ 15 ปีที่แล้ว

คอร์ดเพลง เธอจะอยู่กับฉันตลอดไป

0 | 0
โดย ต้อมค้าบ
เมื่อ 15 ปีที่แล้ว

คอร์ดเพลง เธอจะอยู่กับฉันตลอดไป

0 | 0
โดย ต้อม เนี่ยแหละ
เมื่อ 15 ปีที่แล้ว

คอร์ดเพลง เธอจะอยู่กับฉันตลอดไป

0 | 0
โดย NV Pooh
เมื่อ 17 ปีที่แล้ว

คอร์ดเพลง เธอจะอยู่กับฉันตลอดไป

0 | 0
โดย เว็บมาสซาเตอร์
เมื่อ 18 ปีที่แล้ว

เนื้อเพลง เธอจะอยู่กับฉันตลอดไป - แคลช (Clash)


rtist : lash (แคลช)

lbum :

ความเป็นจริงวันนี้แม้ทำให้เราต้องปวดใจ แต่ฉันไม่ลืมภาพเธอได้เลย

เก็บอยู่ในหัวใจฉัน คิดถึงและเป็นห่วงเธอ รักเธออยู่เสมอไม่เคยลบเลือน


วันเวลาจะหมุนไปนานแสนนานสักเท่าไร อยากขอให้เธอมั่นในสัญญา

จะอยู่รอที่ตรงนี้ ฉันรู้เธอไม่กลับมา แต่ความรู้สึกจะไม่เลือนจากเธอ

* เธอจะอยู่กับฉันตลอดไป ไม่ว่าอีกนานแสนนาน นานเท่าไรไม่ลืมเลือน
ความทรงจำคอยย้ำและช่วยเตือน เราต่างผูกพันด้วยรักตลอดไป

(ซ้ำ *)

ไกลห่างคนละฟ้า แต่ด้วยรักและศรัทธา
จะเชื่อมใจถึงกัน จะสัญญาด้วยหัวใจ ไม่มีใครแทนเธอ

(ซ้ำ *)

ความทรงจำคอยย้ำและช่วยเตือน เราต่างผูกพันด้วยรักตลอดไป

Cover เพลงเธอจะอยู่กับฉันตลอดไป


ยังไม่มี Cover เพลงนี้

[ ช่วยกันแบ่งปันคลิปเพลงที่คุณเล่นเอง ]

ฟังเพลง เธอจะอยู่กับฉันตลอดไป

เพื่อนไม่ทิ้งกัน - แคลช (Clash)
เมื่อ 17 ปีที่แล้ว
ค้นพบคอร์ด 10 เวอร์ชั่น
ฝากความยินดี - แคลช (Clash)
เมื่อ 11 ปีที่แล้ว
ค้นพบคอร์ด 3 เวอร์ชั่น
นางฟ้าคนเดิม - แคลช (Clash)
เมื่อ 15 ปีที่แล้ว
ค้นพบคอร์ด 41 เวอร์ชั่น
วังวน - แคลช (Clash)
เมื่อ 15 ปีที่แล้ว
ค้นพบคอร์ด 19 เวอร์ชั่น
เพลงสุดท้าย - แคลช (clash)
เมื่อ 11 ปีที่แล้ว
ค้นพบคอร์ด 1 เวอร์ชั่น
ไฟรัก - แคลช (Clash)
เมื่อ 16 ปีที่แล้ว
ค้นพบคอร์ด 32 เวอร์ชั่น
รอ - แคลช (Clash)
เมื่อ 15 ปีที่แล้ว
ค้นพบคอร์ด 29 เวอร์ชั่น
ขอเจ็บแทน - แคลช (Clash)
เมื่อ 15 ปีที่แล้ว
ค้นพบคอร์ด 33 เวอร์ชั่น
เธอจะอยู่กับฉันตลอดไป - แคลช (Clash)
เมื่อ 18 ปีที่แล้ว
ค้นพบคอร์ด 24 เวอร์ชั่น
ซบที่อกฉัน - แคลช (Clash)
เมื่อ 16 ปีที่แล้ว
ค้นพบคอร์ด 40 เวอร์ชั่น
กอด - แคลช (Clash)
เมื่อ 18 ปีที่แล้ว
ค้นพบคอร์ด 12 เวอร์ชั่น
เกินคำว่ารัก - แคลช clash
เมื่อ 14 ปีที่แล้ว
ค้นพบคอร์ด 17 เวอร์ชั่น
รับได้ทุกอย่าง - แคลช (Clash)
เมื่อ 18 ปีที่แล้ว
ค้นพบคอร์ด 15 เวอร์ชั่น
อ้างว้าง - แคลช (Clash)
เมื่อ 16 ปีที่แล้ว
ค้นพบคอร์ด 4 เวอร์ชั่น
ปฏิเสธไม่ได้ว่ารักเธอ - แคล (Kal) Feat. แบงค์ แคลช (Clash)
เมื่อ 12 ปีที่แล้ว
ค้นพบคอร์ด 1 เวอร์ชั่น
ขอเช็ดน้ำตา - แคลช (Clash)
เมื่อ 18 ปีที่แล้ว
ค้นพบคอร์ด 13 เวอร์ชั่น
ทิ้งรักลงแม่น้ำ - แคลช ((Clash) Pack4)
เมื่อ 16 ปีที่แล้ว
ค้นพบคอร์ด 8 เวอร์ชั่น
เพื่อเธอตลอดไป - แบงค์ แคลช
เมื่อ 17 ปีที่แล้ว
ค้นพบคอร์ด 15 เวอร์ชั่น
ผีเสื้อ - แคลช (Clash)
เมื่อ 16 ปีที่แล้ว
ค้นพบคอร์ด 31 เวอร์ชั่น
โรคประจำตัว - แคลช (Clash)
เมื่อ 17 ปีที่แล้ว
ค้นพบคอร์ด 22 เวอร์ชั่น