คอร์ดเพลง อยากให้อยู่ด้วยไหม - อัสนี วสันต์ โชติกุล

Version 2
แกะโดย อยากให้ผมอยู่ด้วยไหม
เมื่อ 2 พ.ค.2549,14:25น.
ดู 864 ครั้ง
ผมแกะเองนะ ถูกรึป่าวเนี่ย- -
1:----------------------------------------------------------------------------------------------7--9-10-12-
2:---------------------------------------------10-----------11^---------------------8--10----
3:---9^--9^9--7--9------9^---s11-12------------------------9^9-7h9s11---------
4:----------------------9-9------------------------12-12-----------------------------------

1:--14-15-17-------17---------------------------------------15-17s19-----
2:----------------17^-----17^--15h17---------17^---19-------------------
3:-------------------------------------------16-16------------------------------
4:---------------------------------------------------------------------------------

ได้แค่นี้อะ
คอร์ดเพลง อยากให้อยู่ด้วยไหม

ความคิดเห็นเกี่ยวกับคอร์ดนี้

เนื้อเพลง อยากให้อยู่ด้วยไหม - อัสนี วสันต์ โชติกุล

rtist : อัสนี วสันต์
Song : อยากให้อยู่ด้วยไหม

Intro:


ฐานะเพื่อนสนิท อดีตคนรู้ใจ แค่เห็นเธอร้องไห้ ทำใจไม่ได้สักที

sus4
จะไม่ถามสักคำว่าใคร ที่มันทำให้เธอต้องเป็นเช่นวันนี้ ฉันรู้สึกไม่ดี ฉันเป็นห่วงเธอ

sus4

เธออยากให้ฉันอยู่ด้วยไหม อยากให้ฉันอยู่ด้วยไหมเธอ จนกว่าที่เจ็บที่เจอมานั้น มันจะบรรเทา



เธออยากให้ฉันอยู่กับเธอไหม ต้องการใครสักคนหรือเปล่า จนกว่าจะผ่านเรื่องราวที่ปวดใจ



ก็เหมือนกับเมื่อก่อน เมื่อตอนเรารักกัน เมื่อใดเธอไหวหวั่น ก็ยังมีฉันทุกที

(*, **)

Solo:

Cover เพลงอยากให้อยู่ด้วยไหม


ยังไม่มี Cover เพลงนี้

[ ช่วยกันแบ่งปันคลิปเพลงที่คุณเล่นเอง ]

ฟังเพลง อยากให้อยู่ด้วยไหม

อยากได้ยินว่ารักกัน - อัสนี วสันต์ โชติกุล
เมื่อ 19 ปีที่แล้ว
ค้นพบคอร์ด 5 เวอร์ชั่น
เธอปันใจ - อัสนี วสันต์ โชติกุล
เมื่อ 19 ปีที่แล้ว
ค้นพบคอร์ด 4 เวอร์ชั่น
หนึ่งมิตรชิดใกล้ - อัสนี วสันต์ โชติกุล
เมื่อ 19 ปีที่แล้ว
ค้นพบคอร์ด 2 เวอร์ชั่น
รักเธอเสมอ - อัสนี วสันต์ โชติกุล
เมื่อ 19 ปีที่แล้ว
ค้นพบคอร์ด 8 เวอร์ชั่น
อยากให้อยู่ด้วยไหม - อัสนี วสันต์ โชติกุล
เมื่อ 17 ปีที่แล้ว
ค้นพบคอร์ด 5 เวอร์ชั่น
สิทธิ์ของเธอ - อัสนี วสันต์ โชติกุล
เมื่อ 17 ปีที่แล้ว
ค้นพบคอร์ด 4 เวอร์ชั่น
พูดลอยๆ - อัสนี-วสันต์ โชติกุล
เมื่อ 11 ปีที่แล้ว
ค้นพบคอร์ด 3 เวอร์ชั่น
กรุงเทพมหานคร - อัสนี วสันต์ โชติกุล
เมื่อ 18 ปีที่แล้ว
ค้นพบคอร์ด 3 เวอร์ชั่น
ยินยอม - อัสนี วสันต์ โชติกุล
เมื่อ 17 ปีที่แล้ว
ค้นพบคอร์ด 3 เวอร์ชั่น
หัวใจสะออน - อัสนี วสันต์ โชติกุล
เมื่อ 19 ปีที่แล้ว
ค้นพบคอร์ด 3 เวอร์ชั่น
ได้อย่างเสียอย่าง - อัสนี วสันต์ โชติกุล
เมื่อ 19 ปีที่แล้ว
ค้นพบคอร์ด 5 เวอร์ชั่น
เราสองสามคน - อัสนี-วสันต์
เมื่อ 13 ปีที่แล้ว
ค้นพบคอร์ด 2 เวอร์ชั่น
ไม่กล้าบอกเธอ - อัสนี
เมื่อ 15 ปีที่แล้ว
ค้นพบคอร์ด 1 เวอร์ชั่น
คนหลายใจ - อัสนี วัสนต์
เมื่อ 17 ปีที่แล้ว
ค้นพบคอร์ด 2 เวอร์ชั่น
อยากจะลืม - อัสนี วสันต์ โชติกุล
เมื่อ 17 ปีที่แล้ว
ค้นพบคอร์ด 1 เวอร์ชั่น
ทรงพระเจริญ - ป้อม อัสนี โชติกุล feat. แอ๊ด คาราบาว
เมื่อ 16 ปีที่แล้ว
ยังไม่มีคอร์ด
รักใครไม่เป็น (Ost. บ่วงรักกามเทพ) - อัสนี วสันต์ โชติกุล
เมื่อ 14 ปีที่แล้ว
ค้นพบคอร์ด 1 เวอร์ชั่น
ลาก่อน - อัสนี วสันต์ โชติกุล
เมื่อ 17 ปีที่แล้ว
ค้นพบคอร์ด 4 เวอร์ชั่น
ให้เธอ - อัสนีย์ วสันต์
เมื่อ 15 ปีที่แล้ว
ค้นพบคอร์ด 1 เวอร์ชั่น
คนหัวใจสิงห์ - อัสนี วสันต์ โชติกุล
เมื่อ 15 ปีที่แล้ว
ค้นพบคอร์ด 1 เวอร์ชั่น