คอร์ดเพลง ขอเช็ดน้ำตา - แคลช (Clash)

Version 12
แกะโดย คนเก็บแท็ป
เมื่อ 24 ธ.ค.2550,01:50น.
ดู 1187 ครั้ง


เรามั๊งเพื่อนไม่เพี้ยน99.9%
intro
1>----------------------------------------------------------------------------------------------------------
2>----------------------------------------------------------------------------------------------------------
3>---------7s9s7-----------------------------------7s9s7--------------------------------------------
4>------5----------7s9s7--5/5s7-5s7-7s9--5--------7s9s7--5/5s7-4/4s5-2s4/2-2s4
5>---------------------------------------------------------------------------------------------------------
6>---0----------------------------------------------------------------------------------------------------

1>----------------------------------------------------------------------------------------------------------
2>---3--3----------------------------------------------------------------------------------------------------
3>-----0----------------------------------------------------------------------------------------------------
4>-----------------------------------------------------------------------------------------------------------
5>---------------------------------------------------------------------------------------------------------
6>---------------------------------------------------------------------------------------------------------
คอร์ดเพลง ขอเช็ดน้ำตา

ความคิดเห็นเกี่ยวกับคอร์ดนี้

เวอร์ชั่นทั้งหมดของคอร์ดเพลงนี้

คอร์ดเพลง ขอเช็ดน้ำตา

49 | 10
โดย เว็บมาสซาเตอร์
เมื่อ 19 ปีที่แล้ว

คอร์ดเพลง ขอเช็ดน้ำตา

2 | 0
โดย Ryu_skywave
เมื่อ 18 ปีที่แล้ว

คอร์ดเพลง ขอเช็ดน้ำตา

0 | 0
โดย คนเก็บแท็ป
เมื่อ 14 ปีที่แล้ว

คอร์ดเพลง ขอเช็ดน้ำตา

0 | 0
โดย TheBasic
เมื่อ 14 ปีที่แล้ว

คอร์ดเพลง ขอเช็ดน้ำตา

0 | 0
โดย ตูน Sick Senses
เมื่อ 15 ปีที่แล้ว

คอร์ดเพลง ขอเช็ดน้ำตา

0 | 0
โดย ตูน Sick Senses
เมื่อ 15 ปีที่แล้ว

คอร์ดเพลง ขอเช็ดน้ำตา

0 | 0
โดย เวปมาสซาเตอร์นี่ใครอ่า
เมื่อ 16 ปีที่แล้ว

คอร์ดเพลง ขอเช็ดน้ำตา

0 | 0
โดย ป๋อ
เมื่อ 17 ปีที่แล้ว

คอร์ดเพลง ขอเช็ดน้ำตา

0 | 0
โดย รัน
เมื่อ 18 ปีที่แล้ว

คอร์ดเพลง ขอเช็ดน้ำตา

0 | 0
โดย P
เมื่อ 18 ปีที่แล้ว

คอร์ดเพลง ขอเช็ดน้ำตา

0 | 0
โดย NV Pooh
เมื่อ 19 ปีที่แล้ว

เนื้อเพลง ขอเช็ดน้ำตา - แคลช (Clash)


rtist : แคลช (lash)


sus4
เช็ดน้ำตา แล้วมองกันได้ไหม ฉันเป็นใคร เธอลืมไปแล้วหรือ
sus4
ฉันคนเดิม ที่ยังไงก็รักๆเธอ แม้ว่าเธอ เคยทอดทิ้งฉันไป

sus4
ถึงเวลา เขาทิ้งเธอในวันนี้ รู้ซึ้งดี ว่ามันเจ็บแค่ไหน
sus4
ถ้าไม่รังเกียจ อยากโอบเธอมาซบตรงไหล่ เชื่อใจ ไว้ใจกันสักครั้ง


* ไม่ได้มาเพื่อถือโอกาส ในเวลาที่เธออ่อนแอ

แต่จะคอยมาช่วยดูแล ไม่ได้มาเพื่อแทนใคร

** ก็ฉันรู้ ว่าฉันแทนเขาไม่ได้ และฉันรู้ ว่าใจเธอมีแต่เขา

แต่ฉันขอ ขอแค่เช็ดน้ำตาเธอเบาๆ ในฐานะคนรักเก่าที่คุ้นเคย

sus4
ไม่เป็นไร ไม่ขอให้เธอกลับคืน ฉันรู้ตัว ว่าควรอยู่ที่ไหน
sus4
ถึงแม้รักเธอ แต่ไม่เคยคิดฝืนใจใคร แค่ให้เธอ ไม่เสียใจไปกว่านี้

(ซ้ำ * , **)

(ซ้ำ **)


แต่ฉันขอ ขอแค่เช็ดน้ำตาเธอเบาๆ ในฐานะคนรักเก่าที่คุ้นเคย

Cover เพลงขอเช็ดน้ำตา


ยังไม่มี Cover เพลงนี้

[ ช่วยกันแบ่งปันคลิปเพลงที่คุณเล่นเอง ]

ฟังเพลง ขอเช็ดน้ำตา

เพื่อนไม่ทิ้งกัน - แคลช (Clash)
เมื่อ 17 ปีที่แล้ว
ค้นพบคอร์ด 10 เวอร์ชั่น
ฝากความยินดี - แคลช (Clash)
เมื่อ 11 ปีที่แล้ว
ค้นพบคอร์ด 3 เวอร์ชั่น
นางฟ้าคนเดิม - แคลช (Clash)
เมื่อ 16 ปีที่แล้ว
ค้นพบคอร์ด 41 เวอร์ชั่น
วังวน - แคลช (Clash)
เมื่อ 15 ปีที่แล้ว
ค้นพบคอร์ด 19 เวอร์ชั่น
เพลงสุดท้าย - แคลช (clash)
เมื่อ 12 ปีที่แล้ว
ค้นพบคอร์ด 1 เวอร์ชั่น
ไฟรัก - แคลช (Clash)
เมื่อ 16 ปีที่แล้ว
ค้นพบคอร์ด 32 เวอร์ชั่น
ขอเจ็บแทน - แคลช (Clash)
เมื่อ 15 ปีที่แล้ว
ค้นพบคอร์ด 33 เวอร์ชั่น
รอ - แคลช (Clash)
เมื่อ 15 ปีที่แล้ว
ค้นพบคอร์ด 29 เวอร์ชั่น
เธอจะอยู่กับฉันตลอดไป - แคลช (Clash)
เมื่อ 19 ปีที่แล้ว
ค้นพบคอร์ด 24 เวอร์ชั่น
ซบที่อกฉัน - แคลช (Clash)
เมื่อ 16 ปีที่แล้ว
ค้นพบคอร์ด 40 เวอร์ชั่น
กอด - แคลช (Clash)
เมื่อ 19 ปีที่แล้ว
ค้นพบคอร์ด 12 เวอร์ชั่น
เกินคำว่ารัก - แคลช clash
เมื่อ 14 ปีที่แล้ว
ค้นพบคอร์ด 17 เวอร์ชั่น
รับได้ทุกอย่าง - แคลช (Clash)
เมื่อ 19 ปีที่แล้ว
ค้นพบคอร์ด 15 เวอร์ชั่น
อ้างว้าง - แคลช (Clash)
เมื่อ 17 ปีที่แล้ว
ค้นพบคอร์ด 4 เวอร์ชั่น
ปฏิเสธไม่ได้ว่ารักเธอ - แคล (Kal) Feat. แบงค์ แคลช (Clash)
เมื่อ 13 ปีที่แล้ว
ค้นพบคอร์ด 1 เวอร์ชั่น
ขอเช็ดน้ำตา - แคลช (Clash)
เมื่อ 19 ปีที่แล้ว
ค้นพบคอร์ด 13 เวอร์ชั่น
ทิ้งรักลงแม่น้ำ - แคลช ((Clash) Pack4)
เมื่อ 17 ปีที่แล้ว
ค้นพบคอร์ด 8 เวอร์ชั่น
เพื่อเธอตลอดไป - แบงค์ แคลช
เมื่อ 18 ปีที่แล้ว
ค้นพบคอร์ด 15 เวอร์ชั่น
ผีเสื้อ - แคลช (Clash)
เมื่อ 16 ปีที่แล้ว
ค้นพบคอร์ด 31 เวอร์ชั่น
โรคประจำตัว - แคลช (Clash)
เมื่อ 17 ปีที่แล้ว
ค้นพบคอร์ด 22 เวอร์ชั่น