คอร์ดเพลง หัวใจพรือโฉ - มาลีฮวนน่า

Version 6
แกะโดย ต้น รามัน
เมื่อ 21 ม.ค.2549,11:16น.
ดู 989 ครั้ง
โทษทีข้างบนผิดไปตัวนึง จาก  4 ต้องเป็น 5 อันนี้แหละของจริง  อาจารย์ไข่ มาลีฮวนน่าสอนมากับมือ
ใครมีเพลงแทปอื่น ของมาลีฮวนน่า ช่วยลงหน่อยนะอยากได้มากเลย ผมเป็นแฟนพันธ์แท้เลย เมลมาให้ก็ได้ nattavutaomyim.com จะขายก็เอา ขอร้องเลยนะ ผมอยากได้จริง
1/-----------------------------------------
2/------------------------------------------
3/-----------------------------------------
4/-----------------------------------------
5/----------------------------------------
6/----0--2--5--2--------------------------- ลง A

1/----------------------------------------------------
2/------------------------------------------------
3/--------------------------------------------
4/------------------------------------------------
5/-------------------- 2--------------------------
6/-----0---2----5------------------------------- ลง_F#M

1/------------------------------------------------
2/----------------------------------------------
3/------------------------------------------------
4/------------------------------------------------
5/------------------------------------------------
6/------0---2---5--0------------------------- ลง E

1/-----------------------------------------------
2/----------------------------------------------
3/-----------------------------------------------
4/---------------------------------------------
5/-------------------2-------------------
6/------0---2---5------------------------ ลง F#M วนซ้ำอีกรอบ
คอร์ดเพลง หัวใจพรือโฉ

ความคิดเห็นเกี่ยวกับคอร์ดนี้

เวอร์ชั่นทั้งหมดของคอร์ดเพลงนี้

คอร์ดเพลง หัวใจพรือโฉ

90 | 15
โดย นิก ราชบุรี บ้าเพื่อชีวิต
เมื่อ 16 ปีที่แล้ว

คอร์ดเพลง หัวใจพรือโฉ

0 | 0
โดย Footballzaa Indy
เมื่อ 4 ปีที่แล้ว

คอร์ดเพลง หัวใจพรือโฉ

0 | 0
โดย Tanakorn Krudthai
เมื่อ 6 ปีที่แล้ว

คอร์ดเพลง หัวใจพรือโฉ

0 | 0
โดย คนไร้ตัวตน
เมื่อ 13 ปีที่แล้ว

คอร์ดเพลง หัวใจพรือโฉ

0 | 0
โดย ต้น รามัน
เมื่อ 15 ปีที่แล้ว

คอร์ดเพลง หัวใจพรือโฉ

0 | 0
โดย ต้น รามัน junior
เมื่อ 15 ปีที่แล้ว

คอร์ดเพลง หัวใจพรือโฉ

0 | 0
โดย เน็ท
เมื่อ 16 ปีที่แล้ว

คอร์ดเพลง หัวใจพรือโฉ

0 | 0
โดย เน็ท
เมื่อ 16 ปีที่แล้ว

คอร์ดเพลง หัวใจพรือโฉ

0 | 0
โดย HeeLaBird
เมื่อ 16 ปีที่แล้ว

เนื้อเพลง หัวใจพรือโฉ - มาลีฮวนน่า

intro. 2Times


ไม่บอกเธอรู้หรือเปล่า ถึงเรื่องราวที่ฉันนั้นแอบรักเธอ

เพียงพบครั้งแรก ตัวฉันแอบจ้องมองเธอ

สวยจริงเหวอน้องนี้พี่รักกลมเดียน

*ไม่บอกเธอไม่รู้แน่ อยากเข้าไปแคหัวใจก๊ยังพรือโฉ้

ก็แค่ผู้ชายอยู่โพล้ะ แถมยังอดโซรักของพี่รักนี้แค่รัก หย๊บ หย๊บ

**อยากมีใครซักคน ช่วยผ่อนคลายความเหงาความเศร้าที่ใจ

บนทางเดินกว้างไกลยังไม่มีใครหัวใจพี่ยังพรือโฉ้

Intro. 2 Times

( * , **)

จบ

Cover เพลงหัวใจพรือโฉ


ยังไม่มี Cover เพลงนี้

[ ช่วยกันแบ่งปันคลิปเพลงที่คุณเล่นเอง ]

ฟังเพลง หัวใจพรือโฉ

แสงจันทร์ - มาลีฮวนน่า
เมื่อ 16 ปีที่แล้ว
ค้นพบคอร์ด 12 เวอร์ชั่น
ลมเพลมพัด - มาลีฮวนน่า
เมื่อ 17 ปีที่แล้ว
ค้นพบคอร์ด 8 เวอร์ชั่น
หัวใจพรือโฉ - มาลีฮวนน่า
เมื่อ 16 ปีที่แล้ว
ค้นพบคอร์ด 9 เวอร์ชั่น
เด็กน้อย - มาลีฮวนน่า
เมื่อ 14 ปีที่แล้ว
ค้นพบคอร์ด 5 เวอร์ชั่น
กระท่อมกัญชา - มาลีฮวนน่า
เมื่อ 14 ปีที่แล้ว
ค้นพบคอร์ด 9 เวอร์ชั่น
อาวรณ์ - มาลีฮวนน่า
เมื่อ 17 ปีที่แล้ว
ค้นพบคอร์ด 5 เวอร์ชั่น
ถนนแปลกแยก - มาลีฮวนน่า
เมื่อ 15 ปีที่แล้ว
ค้นพบคอร์ด 7 เวอร์ชั่น
หมาหยอกไก่ - มาลีฮวนน่า
เมื่อ 13 ปีที่แล้ว
ค้นพบคอร์ด 4 เวอร์ชั่น
หมาล่าเนื้อ - มาลีฮวนน่า
เมื่อ 13 ปีที่แล้ว
ค้นพบคอร์ด 4 เวอร์ชั่น
พร้าว - มาลีฮวนน่า
เมื่อ 16 ปีที่แล้ว
ค้นพบคอร์ด 17 เวอร์ชั่น
คนเลว - มาลีฮวนน่า
เมื่อ 11 ปีที่แล้ว
ค้นพบคอร์ด 2 เวอร์ชั่น
เรือรักกระดาษ - มาลีฮวนน่า
เมื่อ 14 ปีที่แล้ว
ค้นพบคอร์ด 5 เวอร์ชั่น
คนเช็ดเงา - มาลีฮวนน่า
เมื่อ 13 ปีที่แล้ว
ค้นพบคอร์ด 2 เวอร์ชั่น
จันทร์ฉาย - มาลีฮวนน่า
เมื่อ 17 ปีที่แล้ว
ค้นพบคอร์ด 14 เวอร์ชั่น
โมรา - มาลีฮวนน่า
เมื่อ 14 ปีที่แล้ว
ค้นพบคอร์ด 1 เวอร์ชั่น
หัวใจละเฮีย - มาลีฮวนน่า
เมื่อ 13 ปีที่แล้ว
ค้นพบคอร์ด 3 เวอร์ชั่น
สหายสุรา - มาลีฮวนน่า
เมื่อ 14 ปีที่แล้ว
ค้นพบคอร์ด 2 เวอร์ชั่น
ไอ้ใบ้ - มาลีฮวนน่า
เมื่อ 14 ปีที่แล้ว
ค้นพบคอร์ด 3 เวอร์ชั่น
ว่าวจุฬา - มาลีฮวนน่า
เมื่อ 13 ปีที่แล้ว
ค้นพบคอร์ด 1 เวอร์ชั่น
ขอทานน้อย - มาลีฮวนน่า
เมื่อ 11 ปีที่แล้ว
ค้นพบคอร์ด 1 เวอร์ชั่น