คอร์ดเพลง น้ำเต็มแก้ว - เอ็นโดรฟิน (Endorphine)

Version 4
แกะโดย KID
เมื่อ 21 ธ.ค.2548,09:05น.
ดู 596 ครั้ง
ลองๆ กานน๊ะ เพิ่งแกะเมื่อเช้าตรู่ ง่วงๆ 

Intro
4----------9--10-10-10-10-10--8--10-11-11-11-11-11-11-----13-11-10-10-10-10-10-
5-----10------------------------------------------------------------------------------------------
6---------------------------------------------------------------------------------------------------


4-------8-10-11-11-11-11-11-11-----------/15---/13----------
5---------------------------------------------------------------------
6---------------------------------------------------------------------


Solo
4----------9--10-10-10-10-10--8--10-11-11-11-11-11-11-----13-11-10-10-10-10-10-
5-----10------------------------------------------------------------------------------------------
6---------------------------------------------------------------------------------------------------


4------8-10-11-11-11-11-11-11--------9-10-11/6--11-11/6-------11-13-15-16-15-----
5--------------------------------------------------------------------------------------------------
6--------------------------------------------------------------------------------------------------

4----------11/6---11-11/6----8/15-----------------
5-------------------------------------------------------
6-------------------------------------------------------

ผิดตรงไหนก็ไปดัดแปลงเอาน๊ะ ลุยๆ
คอร์ดเพลง น้ำเต็มแก้ว

ความคิดเห็นเกี่ยวกับคอร์ดนี้

เวอร์ชั่นทั้งหมดของคอร์ดเพลงนี้

คอร์ดเพลง น้ำเต็มแก้ว

1 | 0
โดย tang
เมื่อ 13 ปีที่แล้ว

คอร์ดเพลง น้ำเต็มแก้ว

0 | 0
โดย เก่ง'ง มาตรฐานชายไทย
เมื่อ 2 ปีที่แล้ว

คอร์ดเพลง น้ำเต็มแก้ว

0 | 0
โดย มาแล้วจ้า
เมื่อ 14 ปีที่แล้ว

คอร์ดเพลง น้ำเต็มแก้ว

0 | 0
โดย วนิภพ
เมื่อ 15 ปีที่แล้ว

คอร์ดเพลง น้ำเต็มแก้ว

0 | 0
โดย นักเดินทาง
เมื่อ 15 ปีที่แล้ว

คอร์ดเพลง น้ำเต็มแก้ว

0 | 0
โดย toy
เมื่อ 15 ปีที่แล้ว

คอร์ดเพลง น้ำเต็มแก้ว

0 | 0
โดย guitarmaster
เมื่อ 15 ปีที่แล้ว

คอร์ดเพลง น้ำเต็มแก้ว

0 | 0
โดย ......
เมื่อ 15 ปีที่แล้ว

คอร์ดเพลง น้ำเต็มแก้ว

0 | 0
โดย gifzy
เมื่อ 15 ปีที่แล้ว

คอร์ดเพลง น้ำเต็มแก้ว

0 | 0
โดย นาย บิ๊ก T.N.
เมื่อ 15 ปีที่แล้ว

คอร์ดเพลง น้ำเต็มแก้ว

0 | 0
โดย skip
เมื่อ 15 ปีที่แล้ว

คอร์ดเพลง น้ำเต็มแก้ว

0 | 0
โดย Benzuka
เมื่อ 15 ปีที่แล้ว

คอร์ดเพลง น้ำเต็มแก้ว

0 | 0
โดย ฮิวโก้
เมื่อ 15 ปีที่แล้ว

คอร์ดเพลง น้ำเต็มแก้ว

0 | 0
โดย ปุ๊ง
เมื่อ 15 ปีที่แล้ว

คอร์ดเพลง น้ำเต็มแก้ว

0 | 0
โดย KID
เมื่อ 15 ปีที่แล้ว

คอร์ดเพลง น้ำเต็มแก้ว

0 | 0
โดย Bass
เมื่อ 15 ปีที่แล้ว

คอร์ดเพลง น้ำเต็มแก้ว

0 | 0
โดย บอย
เมื่อ 16 ปีที่แล้ว

คอร์ดเพลง น้ำเต็มแก้ว

0 | 0
โดย beckung
เมื่อ 16 ปีที่แล้ว

เนื้อเพลง น้ำเต็มแก้ว - เอ็นโดรฟิน (Endorphine)

วันๆที่เป็นอยู่ ต้องทำเพื่อเทอทุกอย่าง
แต่ใจเทอ ไม่เคยลืมรักครั้งเก่า
เทอเป็นแก้วใบหนึ่ง ที่เต็มไปด้วยน้ำป่าว
ยิ่งเทเติมลงไป มีแต่ล้นออก

คนเก่า รักเก่า เทอไม่เคยลบเลือน
คนใหม่ รักใหม่ เลยท้อ

จริงๆเข้าใจอยู่ กับความทรงจำครั้งเก่า
แต่ยังเอามันมาปิดกั้นหัวใจ
เปลี่ยนเปนแก้วป่าว แก้วใหม่
เปิดใจทีนะเทอรักเทอ
รับหน่อย รู้หน่อย ความรัก จากฉัน

* ฉันยังต้องรออีกนานไหม
ต้องรอเทออีกนานไหม
ถึงจะได้เจอกับรักที่เทอเคยบอกฉัน
เมื่อไรรักเก่าระเหย
ฉันรอให้เทอได้ลืมดูสักวันสักวัน
เบื่อการ เริ่มใหม่ รักใหม่
เผื่อเทอกับฉันและรักเรา

ทุ่มเท เท่าไหร่ มันก้ล้นเท่านั้น
ไม่อาจ สำผัสเข้าถึง สักครั้ง

( * )

บอกหน่อยฉันควรรอต่อไปไหม
ต้องรอเทออีกนานไหม
ถึงจะได้เจอกับรักที่เทอเคยบอกฉัน
เมื่อไรรักเก่าระเหย
ฉันรอให้เทอได้ลืมดูสักวันสักวัน
เบื่อการ เริ่มใหม่ รักใหม่
เผื่อเทอกับฉันและรักเรา

Cover เพลงน้ำเต็มแก้ว


ยังไม่มี Cover เพลงนี้

[ ช่วยกันแบ่งปันคลิปเพลงที่คุณเล่นเอง ]

ฟังเพลง น้ำเต็มแก้ว

สิ่งสำคัญ - เอ็นโดรฟิน (Endorphine)
เมื่อ 17 ปีที่แล้ว
ค้นพบคอร์ด 23 เวอร์ชั่น
น้ำเต็มแก้ว - เอ็นโดรฟิน (Endorphine)
เมื่อ 16 ปีที่แล้ว
ค้นพบคอร์ด 22 เวอร์ชั่น
อย่าทำให้ฟ้าผิดหวัง - เอ็นโดรฟิน (Endorphine)
เมื่อ 16 ปีที่แล้ว
ค้นพบคอร์ด 25 เวอร์ชั่น
เพื่อนสนิท - เอ็นโดรฟิน (Endorphine)
เมื่อ 17 ปีที่แล้ว
ค้นพบคอร์ด 3 เวอร์ชั่น
สิ่งสำคัญ - เอ็นโดรฟิน (Endorphine)
เมื่อ 16 ปีที่แล้ว
ค้นพบคอร์ด 10 เวอร์ชั่น
คืนข้ามปี - ดา เอ็นโดรฟิน (Endorphine)
เมื่อ 14 ปีที่แล้ว
ค้นพบคอร์ด 25 เวอร์ชั่น
ไม่รู้จักฉัน ไม่รู้จักเธอ - ป๊อบ แคลอลี่ บลา บลา & ดา เอ็นโดรฟิน
เมื่อ 14 ปีที่แล้ว
ค้นพบคอร์ด 14 เวอร์ชั่น
เมื่อเขามา ฉันจะไป - เอ็นโดรฟิน (Endorphine)
เมื่อ 16 ปีที่แล้ว
ค้นพบคอร์ด 21 เวอร์ชั่น
ภาพลวงตา - ดา เอ็นโดรฟิน (Endorphine)
เมื่อ 14 ปีที่แล้ว
ค้นพบคอร์ด 28 เวอร์ชั่น
ดูแลเขาให้ดีดี - เอ็นโดรฟิน (Endorphine)
เมื่อ 13 ปีที่แล้ว
ค้นพบคอร์ด 3 เวอร์ชั่น
ได้ยินไหม - ดา เอ็นโดรฟิน (Endorphine)
เมื่อ 14 ปีที่แล้ว
ค้นพบคอร์ด 20 เวอร์ชั่น
น่ารัก Ost.วัยอลวน - เอ็นโดรฟิน (Endorphine)
เมื่อ 16 ปีที่แล้ว
ค้นพบคอร์ด 13 เวอร์ชั่น
คำขอสุดท้าย - ดา เอ็นโดรฟิน (Endorphine)
เมื่อ 14 ปีที่แล้ว
ค้นพบคอร์ด 13 เวอร์ชั่น
ไม่ต้องรู้ว่าเราคบกันแบบไหน - เอ็นโดรฟิน (Endorphine)
เมื่อ 15 ปีที่แล้ว
ค้นพบคอร์ด 4 เวอร์ชั่น
ครั้งหนึ่งเราเคยรักกัน - ดา เอ็นโดรฟิน
เมื่อ 12 ปีที่แล้ว
ยังไม่มีคอร์ด
ดอกราตรี - เอ็นโดรฟิน (Endorphine)
เมื่อ 17 ปีที่แล้ว
ค้นพบคอร์ด 6 เวอร์ชั่น
เธอบอกให้ลืม - เอ็นโดรฟิน (Endorphine)
เมื่อ 16 ปีที่แล้ว
ค้นพบคอร์ด 3 เวอร์ชั่น
อยากได้ยินว่ารักกัน - ดา เอ็นโดรฟิน (Endorphine)
เมื่อ 11 ปีที่แล้ว
ค้นพบคอร์ด 2 เวอร์ชั่น
ที่เห็นและเป็นอยู่ - ดา เอ็นโดรฟิน (Endorphine)
เมื่อ 14 ปีที่แล้ว
ค้นพบคอร์ด 2 เวอร์ชั่น
รักษาสิทธิ์ - เอ็นโดรฟิน (Endorphine)
เมื่อ 14 ปีที่แล้ว
ค้นพบคอร์ด 6 เวอร์ชั่น