คอร์ดเพลง มากกว่ารัก - พีท เดอะสตาร์

Version 3
แกะโดย nuku
เมื่อ 31 ก.ค.2550,01:23น.
ดู 1917 ครั้ง

intro
1)-------6-----7~9------9-------------------------------10----10--10--12--9-------------------
2)-------5-----------------7------7------10---------------9--------------------------12--10-10--
3)-------6-----------------7------------------------9-------------------------------------------------
4)-------5-----------------9---------------------------------------------------------------------------
5)------------------------------------------------------------------------------------------------------
6)------------------------------------------------------------------------------------------------------

---------------------------------------10--12--13------------13-----------
----------------------10-----12--------------------------12----------------
---------------10------------------------------------------------------------
------12---------------------------------------------------------------------
-------------------------------------------------------------------------------
------------------------------------------------------------------------------
คอร์ดเพลง มากกว่ารัก

ความคิดเห็นเกี่ยวกับคอร์ดนี้

เนื้อเพลง มากกว่ารัก - พีท เดอะสตาร์

มากกว่ารัก พีท เดอะสตาร์

Intro :

คนเคยเหงา เคยรู้สึกเหว่ว้า เคยมองหาความรักนั้นมันอยู่ที่ใด

โลกใบใหญ่เหลือเกิน มีผู้คนอยู่มากมาย แต่หัวใจมันกลับเหงาขึ้นทุกที

แต่เมื่อฉันได้พบกับเธอ สิ่งที่เธอ ให้ฉันไม่รู้มันคืออะไร

โลกใบใหญ่ใบเดิม กลับไม่เคยต้องเหงาใจ แค่ฉันนั้นยังมีเธออยู่ตรงนี้

* เธอเป็นมากกว่ารัก เพราะเธอนั้นคือครึ่งชีวิต

ฉันใช้เวลาทั้งชีวิตเพื่อตามหา และรอคอยเธอมาแสนนาน

และสุดท้ายก็เจอ ว่าเธอคือทุกอย่าง ที่เติมเต็มหัวใจ

จากนี้ทุกลมหายใจฉันคือเธอ


หากว่าเธอนั้นคือความรัก ก็เป็นรักที่ดีจนไม่มีคำบรรยาย

ฉันโชคดีเหลือเกินที่มีเธอเดินข้างกาย ชีวิตนั้นได้เติมเต็มสิ่งที่ขาดหาย

( ซ้ำ * ) Solo: / ( ซ้ำ * )


จากนี้ทุกลมหายใจ...ฉันคือเธอ...

Cover เพลงมากกว่ารัก


ยังไม่มี Cover เพลงนี้

[ ช่วยกันแบ่งปันคลิปเพลงที่คุณเล่นเอง ]

ฟังเพลง มากกว่ารัก

มากกว่ารัก - พีท เดอะสตาร์
เมื่อ 15 ปีที่แล้ว
ค้นพบคอร์ด 6 เวอร์ชั่น
คนรักคนที่สอง - พีท (Peacemaker)
เมื่อ 15 ปีที่แล้ว
ค้นพบคอร์ด 6 เวอร์ชั่น
จอมยุทธ์ - พีทูวอร์ชิพ
เมื่อ 17 ปีที่แล้ว
ค้นพบคอร์ด 19 เวอร์ชั่น
อย่า อยู่ อย่าง อยาก - พีทูวอร์ชิพ
เมื่อ 17 ปีที่แล้ว
ค้นพบคอร์ด 3 เวอร์ชั่น
ความรักที่เป็นไปไม่ได้ - พีท(peacemaker)
เมื่อ 14 ปีที่แล้ว
ค้นพบคอร์ด 1 เวอร์ชั่น
บ้านนี้มีรัก - พีทูวอร์ชิป (P2Warship)
เมื่อ 13 ปีที่แล้ว
ค้นพบคอร์ด 2 เวอร์ชั่น
ผ่านมาให้แค่จำ - พีท พีระ (Peet Peera)
เมื่อ 9 ปีที่แล้ว
ค้นพบคอร์ด 1 เวอร์ชั่น
พูดไม่ออก - พีท(พีซเมคเกอร์)
เมื่อ 15 ปีที่แล้ว
ค้นพบคอร์ด 2 เวอร์ชั่น
ระยะห่าง - พีทูวอร์ชิป (P2Warship)
เมื่อ 16 ปีที่แล้ว
ค้นพบคอร์ด 1 เวอร์ชั่น
คนในใจเธอ - พีทูวอร์ชิป
เมื่อ 16 ปีที่แล้ว
ค้นพบคอร์ด 1 เวอร์ชั่น
เชือกบางบาง - พีทูวอร์ชิป (P2Warship)
เมื่อ 16 ปีที่แล้ว
ค้นพบคอร์ด 2 เวอร์ชั่น
ผ่านมันให้ได้ - พีทูวอร์ชิป
เมื่อ 16 ปีที่แล้ว
ค้นพบคอร์ด 3 เวอร์ชั่น
ไม่สายใช่ไหม (Ost. บางระจัน) - เจนิเฟอร์ คิ้ม - พีท พล
เมื่อ 7 ปีที่แล้ว
ค้นพบคอร์ด 1 เวอร์ชั่น
พรากรัก (Ost. บางระจัน) - เจนิเฟอร์ คิ้ม - พีท พล
เมื่อ 7 ปีที่แล้ว
ค้นพบคอร์ด 1 เวอร์ชั่น
ผ่านมาแค่ให้จำ - พีท พีระ เทศวิศาล
เมื่อ 9 ปีที่แล้ว
ค้นพบคอร์ด 1 เวอร์ชั่น
เจ็บกว่าจาก - พีท พีระ
เมื่อ 8 ปีที่แล้ว
ค้นพบคอร์ด 1 เวอร์ชั่น
คำสั่งจากหัวใจ - พีท พีระ
เมื่อ 7 ปีที่แล้ว
ค้นพบคอร์ด 1 เวอร์ชั่น
รักเขาไปก่อนดีไหม - พีท พีระ เทศวิศาล
เมื่อ 9 ปีที่แล้ว
ค้นพบคอร์ด 1 เวอร์ชั่น
บางระจัน (Ost. บางระจัน) - พีท พล
เมื่อ 7 ปีที่แล้ว
ค้นพบคอร์ด 1 เวอร์ชั่น
หากว่าย้อนเวลากลับไปได้ (Ost. Past Simple Present Perfect) - พีท พีระ
เมื่อ 8 ปีที่แล้ว
ค้นพบคอร์ด 1 เวอร์ชั่น