คอร์ดเพลง ตกหลุมรัก - แอมไฟน์

Version 3
แกะโดย ขั้งสูง (กลับมาแล้ว)
เมื่อ 4 ต.ค.2549,23:03น.
ดู 385 ครั้ง
solo เริ่ม
3)-------12----11----9------7--9--11--9--11------12----11---9--7--6--7----l2 รอบl---14--14--
4)---12----12----12------7-----------------------12----12---12-----------------l2 รอบl--------------

solo กลาง
2)---------------------------------------------------------------------------14------
3)---12--12--11--9----------7--9--11--12--12--11--9----------7----14---
4)----------------------7--7h9--------------------------------7--7h9-------------

2)---------------------------------------------------------------------------------15--15--15s22----17--15
3)---12--12--11---------------------------------------------14-----14--16---------------------14---------
4)-------------------14----------------12--12-----14--16-----16-------------------------------------------
5)-----------------------12--12h14-----------14-------------------------------------------------------------
เดี๋ยวมาลง solo จบหั้ยค่ะ ไปธุระแปปนึง
คอร์ดเพลง ตกหลุมรัก

ความคิดเห็นเกี่ยวกับคอร์ดนี้

เนื้อเพลง ตกหลุมรัก - แอมไฟน์

ตกหลุมรัก
ne
Intro:/ a/(5time)/

ก็ยังไม่ลืม วันแรกที่เจอหน้าเธอ

แอบนินทาเธอ ไม่หล่อแล้วยังเก๊กอีก

แต่งตงแต่งตัวก็กวนสายตา

เห็นแล้วอารมณ์ไม่ดี

คนนี้ใครได้เป็นแฟนต้องทำใจ

แต่โชคชะตาก็เหมือนตั้งใจแกล้งกัน

บังคับให้ฉันใกล้เธอทุกวันเรื่อยไป

+++ที่พูดไว้ว่าไม่ชอบเลย

เดี๋ยวนี้มันเริ่มไม่ไหว

ไม่รู้ลงเอยได้ไงฉันยังงง

*ตกหลุมรักเฉยเลย ไม่ทันได้ตั้งตัว

กว่าจะรู้ตัว ก็ตอนที่เธอหาย

โบราณว่าไว้ ให้จำคำนี้ให้ขึ้นใจ

เกลียดอะไร ก็คงจะได้อย่างนั้น

**อย่าว่ากันนะ ฉันเคยแอบเม้าท์เธอ

อยากบอกเสมอ เพราะเธอฉันจึงรู้ใจ

ถ้าหากยังเคืองเรื่องที่ฉันทำ

ขอโทษแล้วยังไม่หาย

ก็ขอชดใช้ด้วยการรักเธอ
SOLO:/ [2time]

(ซ้ำ *.**)

และหากว่าเธอเองก็ชอบใจ

เกี่ยวก้อยกันเลยอย่ารอ

ฉันขอชดใช้ด้วยการรักเธอ
SOLO:/ (4time)/

Cover เพลงตกหลุมรัก


ยังไม่มี Cover เพลงนี้

[ ช่วยกันแบ่งปันคลิปเพลงที่คุณเล่นเอง ]

ฟังเพลง ตกหลุมรัก

มารักทำไมตอนนี้ - แอมไฟน์
เมื่อ 16 ปีที่แล้ว
ค้นพบคอร์ด 12 เวอร์ชั่น
ขาดความอบอุ่น - แอมไฟน์ (Am fine)
เมื่อ 17 ปีที่แล้ว
ค้นพบคอร์ด 7 เวอร์ชั่น
ผู้หญิงใจง่าย - แอมไฟน์ (Am fine)
เมื่อ 17 ปีที่แล้ว
ค้นพบคอร์ด 9 เวอร์ชั่น
ยืมเขามาลา - แอมไฟน์
เมื่อ 15 ปีที่แล้ว
ค้นพบคอร์ด 9 เวอร์ชั่น
แฟนเก่า - แอมไฟน์ (Am Fine)
เมื่อ 13 ปีที่แล้ว
ค้นพบคอร์ด 2 เวอร์ชั่น
ข้อความ - แอมไฟน์
เมื่อ 15 ปีที่แล้ว
ค้นพบคอร์ด 9 เวอร์ชั่น
ไม่เหงาไม่มาใช่ไหม - แอมไฟน์ (Am Fine)
เมื่อ 15 ปีที่แล้ว
ค้นพบคอร์ด 13 เวอร์ชั่น
หลอกใช้ - ฝ้าย แอมไฟน์ (Amfine)
เมื่อ 11 ปีที่แล้ว
ค้นพบคอร์ด 2 เวอร์ชั่น
ตกหลุมรัก - แอมไฟน์
เมื่อ 15 ปีที่แล้ว
ค้นพบคอร์ด 8 เวอร์ชั่น
น้ำตาจะไหล - แอมไฟน์ (Amfine)
เมื่อ 11 ปีที่แล้ว
ค้นพบคอร์ด 2 เวอร์ชั่น
มาก่อนเจ็บก่อน - แอมไฟน์
เมื่อ 13 ปีที่แล้ว
ค้นพบคอร์ด 2 เวอร์ชั่น
คนไม่สวยผิดเสมอ - แอมไฟน์ (Am Fine)
เมื่อ 10 ปีที่แล้ว
ยังไม่มีคอร์ด
มั่นใจในรัก ไม่มั่นใจในเธอ - แอมไฟน์
เมื่อ 15 ปีที่แล้ว
ค้นพบคอร์ด 3 เวอร์ชั่น
ใกล้ตา - แอมไฟน์
เมื่อ 15 ปีที่แล้ว
ค้นพบคอร์ด 3 เวอร์ชั่น
ใจไม่แข็งเหมือนปาก - แอมไฟน์ (Amfine)
เมื่อ 11 ปีที่แล้ว
ค้นพบคอร์ด 2 เวอร์ชั่น
มั่นใจในรัก ไม่มั่นใจในเธอ - แอมไฟน์
เมื่อ 15 ปีที่แล้ว
ค้นพบคอร์ด 1 เวอร์ชั่น
ความเงียบแทนคำตอบ - แอมไฟน์ (Amfine)
เมื่อ 11 ปีที่แล้ว
ค้นพบคอร์ด 1 เวอร์ชั่น
รักจริงมีไหม (Ost. แม้เลือกเกิดได้) - ฝ้าย แอมไฟน์ (Amfine)
เมื่อ 7 ปีที่แล้ว
ค้นพบคอร์ด 1 เวอร์ชั่น
รับไว้อย่างเดียว - แอมไฟน์ (Am Fine)
เมื่อ 12 ปีที่แล้ว
ยังไม่มีคอร์ด
ไม่เหงา ไม่มาใช่มั้ย - แอมไฟน์(am five)
เมื่อ 14 ปีที่แล้ว
ยังไม่มีคอร์ด