คอร์ดเพลง ความเชื่อ - บอดี้สแลม (Bodyslam)

Version 5
แกะโดย ต้อง
เมื่อ 3 ธ.ค.2548,16:02น.
ดู 548 ครั้ง
Tab BASS ความเชื่อครับ

TAB ตอนพี่ชัชเหยียบกระเดื่อง
G|-------------------------------
D|---------------------------------
A|---4---2-----------------------
E|-----------4---4---------------

ตอนทอนธรรมดา
C#m B A G#m
G|--------------6------------------------4-----------------------------------------------
D|---------6-------------------------4---------------------------7-----------7-------------
A|------4-------------------------2--------------------------7-------------------7---------------4-2----
E|---------------------------------------------------------5-------------------------5-5-4------------4-4-

เล่นอย่างงี้3รอบ รอบที่3ตอน G#mเปลี่ยนการดีดต bass เป็น

G#m
G|-------------------------------------------------------------------------------------
D|---------------7------------4^5^4----------------------------------------------------------
A|------------------7-----------------------------------------------------------------
E|---------------------5-5-4-----------------------------------------------------------------------

อันนี้ท่อนก่อนร้องท่อนฮุก

G|------------6----------------------4---------------------------------------------------
D|--------6-------4^6^4------4------2^4^2--------------7^9^7---7---9---------
A|-----4----------------------2-------------------------0--7-----------------------------
E|--------------------------------------------------------------------------------------------

ท่อนฮุกก็เล่น คอร์ด ธรรมดา

E|---5-5-5-5-5-5-5-5-7-7-7-7-7-7-7-7-9-9-9-9-9-9-9-9-0-0-0-0-0-0-0-0
อีกรอบของฮุก
A|-------------------------------------------------------------------------777-777-777-777
E|---5-5-5-5-5-5-5-5-7-7-7-7-7-7-7-7--999-999-999-999--------------------------

อันนี้เป็น SOLOของกีต้าร์ เพลง ความเชื่อ

E|-------------------------------------------------------------------------------------
B|------------------------------------------------------------------------------------
G|----9-9-9-8-9-9-11-11----9-9-9-8-9-9--6-6-6-6-6-6-----9-9-11-11--13--13--------------
D|-----------------------------------------------------------------------------------
A|----7-7-7-6-7-7--9--9-----7-7-7-6-7-7--4-4-4-4-4-4------7-7--9-9----11--11-------
E|---------------------------------------------------------------------------------

E|-------------------------------------------------------------------------------------
B|--------------------5-7---------------5---4--5-------------------------------------------
G|------4-4-4-4-6-------4-4-4-4-6-----4--4------------------------------------------------

มันจะมีท่อนหลังอีกแต่ขี้เกียจพิมพ์ ถ้าอยากรู้มาหาเราเราอยู่รร.อัสสัมระยอง ชื่อ ต้อง อยู่ ม.3หรือที่ร้านซ้อมดนตรี hotchord บ้านฉาง

คอร์ดเพลง ความเชื่อ

ความคิดเห็นเกี่ยวกับคอร์ดนี้

เวอร์ชั่นทั้งหมดของคอร์ดเพลงนี้

คอร์ดเพลง ความเชื่อ

160 | 15
โดย ไก่
เมื่อ 16 ปีที่แล้ว

คอร์ดเพลง ความเชื่อ

16 | 3
โดย เท็น
เมื่อ 12 ปีที่แล้ว

คอร์ดเพลง ความเชื่อ

0 | 0
โดย เบนซ์
เมื่อ 7 ปีที่แล้ว

คอร์ดเพลง ความเชื่อ

0 | 0
โดย ใครอะ
เมื่อ 13 ปีที่แล้ว

คอร์ดเพลง ความเชื่อ

0 | 0
โดย te
เมื่อ 13 ปีที่แล้ว

คอร์ดเพลง ความเชื่อ

0 | 0
โดย บ
เมื่อ 14 ปีที่แล้ว

คอร์ดเพลง ความเชื่อ

0 | 0
โดย ......
เมื่อ 14 ปีที่แล้ว

คอร์ดเพลง ความเชื่อ

0 | 0
โดย NICEMASTER
เมื่อ 14 ปีที่แล้ว

คอร์ดเพลง ความเชื่อ

0 | 0
โดย 555+
เมื่อ 14 ปีที่แล้ว

คอร์ดเพลง ความเชื่อ

0 | 0
โดย เคนนี่
เมื่อ 14 ปีที่แล้ว

คอร์ดเพลง ความเชื่อ

0 | 0
โดย ...
เมื่อ 15 ปีที่แล้ว

คอร์ดเพลง ความเชื่อ

0 | 0
โดย ...
เมื่อ 15 ปีที่แล้ว

คอร์ดเพลง ความเชื่อ

0 | 0
โดย nut
เมื่อ 15 ปีที่แล้ว

คอร์ดเพลง ความเชื่อ

0 | 0
โดย OkitaSochi๛วงกลมPPK๛
เมื่อ 15 ปีที่แล้ว

คอร์ดเพลง ความเชื่อ

0 | 0
โดย OkitaSochi๛วงกลม P.P.K.๛
เมื่อ 15 ปีที่แล้ว

คอร์ดเพลง ความเชื่อ

0 | 0
โดย aof_psycho
เมื่อ 15 ปีที่แล้ว

คอร์ดเพลง ความเชื่อ

0 | 0
โดย Doy 1A6 ลำปาง
เมื่อ 15 ปีที่แล้ว

คอร์ดเพลง ความเชื่อ

0 | 0
โดย Doy 1A6 ลำปาง
เมื่อ 15 ปีที่แล้ว

คอร์ดเพลง ความเชื่อ

0 | 0
โดย ต้อง
เมื่อ 15 ปีที่แล้ว

คอร์ดเพลง ความเชื่อ

0 | 0
โดย แจ๊ก สามเสน
เมื่อ 15 ปีที่แล้ว

คอร์ดเพลง ความเชื่อ

0 | 0
โดย แจ๊ก สามเสน
เมื่อ 15 ปีที่แล้ว

คอร์ดเพลง ความเชื่อ

0 | 0
โดย มะกรูด
เมื่อ 16 ปีที่แล้ว

เนื้อเพลง ความเชื่อ - บอดี้สแลม (Bodyslam)

Intro :

มันเกือบจะล้ม มันเหนื่อยมันล้า เหมือนแทบขาดใจ

เดินมาจนท้อไม่เจอจุดหมายปลายทางที่ฝัน

จะกลับได้ไหม ถ้าเดินต่อไปยากเย็นขนาดนั้น ยังถามใจ

ตลอดชีวิต ฉันเจอในสิ่งที่คิด

หรือมันจะเป็นอะไรที่ผิด และฉันเองที่หลงทาง

ชีวิตมันต้องเดินตามหาความฝัน หกล้มคลุกคลานเท่าไหร่

มันจะไปจบที่ตรงไหน เมื่อเดินเท่าไหร่มันก็ไปไม่ถึง
ดนตรี :

เดินต่อช้าๆ ไม่อยากปล่อยฝัน ให้มันหลุดมือ

ที่สั่งให้ฉันไปต่อก็คือความเชื่อเท่านั้น

ถ้าในวันนี้เรี่ยวแรงยังเหลือ ก็ยังต้องฝัน ต้องก้าวไป

ตลอดชีวิต ฉันเจอในสิ่งที่คิด

แม้ไม่ว่ามันจะถูกหรือผิด จะขอทำสุดหัวใจ

*ชีวิตมันต้องเดินตามหาความฝัน หกล้มคลุกคลานเท่าไหร่

มันจะไปจบที่ตรงไหน แต่จะยังไงก็ต้องไปให้ถึง

ที่สุดถ้ามันจะไม่คุ้ม แต่มันก็ดีที่อย่างน้อย

ได้จดจำว่าครั้งนึงเคยก้าวไป

แค่คนที่เชื่อในความฝันจะเหน็ดจะเหนื่อยก็ยังต้องเดินต่อไป
(Solo):

**ฉัน(แม้)ท้อแท้สักกี่ที ยังมีหวัง แม้พลาดพลั้งสักกี่ครั้งยังฝันไกล

แม้ฉันล้มฉันก็คงไม่ตาย ฉันยังไม่ตายฉันยังคงหายใจ
(ซ้ำ**/*)

***ฉัน(แม้)ท้อแท้สักกี่ที ยังมีหวัง แม้พลาดพลั้งสักกี่ครั้งยังฝันไกล

แม้ฉันล้มฉันก็คงไม่ตาย ฉันยังไม่ตายฉันยังคงหายใจ
(ซ้ำ***)
Outro : e Out...

Cover เพลงความเชื่อ


ยังไม่มี Cover เพลงนี้

[ ช่วยกันแบ่งปันคลิปเพลงที่คุณเล่นเอง ]

ฟังเพลง ความเชื่อ

งมงาย - บอดี้สแลม (Bodyslam)
เมื่อ 18 ปีที่แล้ว
ค้นพบคอร์ด 23 เวอร์ชั่น
แสงสุดท้าย - บอดี้สแลม (bodyslam)
เมื่อ 11 ปีที่แล้ว
ค้นพบคอร์ด 3 เวอร์ชั่น
ความรัก - บอดี้สแลม (Bodyslam)
เมื่อ 11 ปีที่แล้ว
ค้นพบคอร์ด 13 เวอร์ชั่น
เปราะบาง - บอดี้สแลม (bodyslam)
เมื่อ 11 ปีที่แล้ว
ค้นพบคอร์ด 5 เวอร์ชั่น
ปลายทาง - บอดี้สแลม (Bodyslam)
เมื่อ 18 ปีที่แล้ว
ค้นพบคอร์ด 27 เวอร์ชั่น
สักวันฉันจะดีพอ - บอดี้สแลม (Bodyslam)
เมื่อ 17 ปีที่แล้ว
ค้นพบคอร์ด 14 เวอร์ชั่น
อกหัก - บอดี้สแลม (Bodyslam)
เมื่อ 14 ปีที่แล้ว
ค้นพบคอร์ด 63 เวอร์ชั่น
ความรักทำให้คนตาบอด - บอดี้สแลม (Bodyslam)
เมื่อ 16 ปีที่แล้ว
ค้นพบคอร์ด 45 เวอร์ชั่น
ขอบฟ้า - บอดี้สแลม (Bodyslam)
เมื่อ 16 ปีที่แล้ว
ค้นพบคอร์ด 29 เวอร์ชั่น
คิดฮอด - บอดี้สแลม (bodyslam)
เมื่อ 11 ปีที่แล้ว
ค้นพบคอร์ด 1 เวอร์ชั่น
ความเชื่อ - บอดี้สแลม (Bodyslam)
เมื่อ 16 ปีที่แล้ว
ค้นพบคอร์ด 23 เวอร์ชั่น
พูดในใจ - บอดี้สแลม (Bodyslam)
เมื่อ 16 ปีที่แล้ว
ค้นพบคอร์ด 13 เวอร์ชั่น
อากาศ - บอดี้สแลม (Bodyslam)
เมื่อ 17 ปีที่แล้ว
ค้นพบคอร์ด 24 เวอร์ชั่น
คนที่ถูกรัก - บอดี้สแลม (BodySlam)
เมื่อ 16 ปีที่แล้ว
ค้นพบคอร์ด 16 เวอร์ชั่น
เจ็บจนวันนี้ - บอดี้สแลม (Bodyslam)
เมื่อ 16 ปีที่แล้ว
ค้นพบคอร์ด 23 เวอร์ชั่น
นาฬิกาตาย - บอดี้สแลม (Bodyslam)
เมื่อ 14 ปีที่แล้ว
ค้นพบคอร์ด 23 เวอร์ชั่น
ยาพิษ - บอดี้สแลม (BodySlam)
เมื่อ 14 ปีที่แล้ว
ค้นพบคอร์ด 28 เวอร์ชั่น
หวั่นไหว - บอดี้สแลม (Bodyslam)
เมื่อ 17 ปีที่แล้ว
ค้นพบคอร์ด 30 เวอร์ชั่น
ห้ามใจ - บอดี้สแลม (Bodyslam)
เมื่อ 16 ปีที่แล้ว
ค้นพบคอร์ด 24 เวอร์ชั่น
Sticker (สติ๊กเกอร์) - บอดี้สแลม (BODYSLAM)
เมื่อ 11 ปีที่แล้ว
ค้นพบคอร์ด 2 เวอร์ชั่น