คอร์ดเพลง ความเชื่อ - บอดี้สแลม (Bodyslam)

Version 9
แกะโดย OkitaSochi๛วงกลม P.P.K.๛
เมื่อ 25 ก.พ.2549,20:46น.
ดู 599 ครั้ง
Intro แบบคอนเสิร์ต

3|-----------------------------------9h10s^--8s^--10s^------
4|-11---11-11--------9h11------------------------------------
5|--------------------11---------------------------------------------

3|------7h9----10p8-11---------7h9--9^p8^----12s^--
4|--9------------------------------9--------------------------------

2|-----------------14-12------------------------------------------
3|--12-14-15-----------13-----11--10----12-12h13-------

ในนี้
^s คือ สั่นสายนะงับ พอดีลืมสั่นสายใช้อะไร
h คือ hammer on เช่น 7h9 คือนิ้วชี้กดเฟรส7 แล้วดีดแล้วใช้นิ้วกลางกดเฟรส9 ประมาณนี้แหละ
p คือ คล้ายกับ h ทำเหมือนกันแต่จะใช้สัญลักษณ์ต่างกัน
^ คือ ดันสาย

บางทีอาจมีคนงงตรงนี้
9^p8^ อันนี้คือ ดันสายเฟรส9แล้วpull off ทั้งๆที่กะลังดันสายอยู่แหละนะ



แล้วตามด้วย
1|----------------------------------------------------2-------------------0--------------------------------
2|-------------4---------------4-------------4------4---4--------------4----------------------------------
3|-----------4--------------4-------------4---------4-------4-----------------------------------------------
4|----------2-------------2-------------2-----------2------------------------------------------------------
5|-------4--------------2------------0--------------0--------------2----------------------------------------เล่นแบบนี้ตั้งแต่ท่อนแรกไปถึง
มันเกือบจะล้ม มันเหนื่อยมันล้า เหมือนแทบขาดใจ
เดินมาจนท้อไม่เจอจุดหมายปลายทางที่ฝัน
จะกลับได้ไหม ถ้าเดินต่อไปยากเย็นขนาดนั้น ยังถามใจ

แล้วท่อนฮุคก้อเล่นคอร์ดฟัต+เอฟเฟกนะคับ
นี่คอร์ดฟัตนะ
A
6|----5
5|----7
สายที่เหลือใช้นิ้วก้อยแตะให้ดีดบอดๆ
B
6|-------
5|---2
4|---4
สายที่เหลือใช้นิ้วก้อยแตะให้บอดเหมือนกัน ส่วนสาย6ก้อใช้นิ้วกลางแตะให้บอด
C#m
6|------
5|--4
4|--6
สายที่เหลือใช้นิ้วก้อยแตะให้บอดเหมือนกัน ส่วนสาย6ก้อใช้นิ้วกลางแตะให้บอด
E
6|-----
5|--7
4|--9
สายที่เหลือใช้นิ้วก้อยแตะให้บอดเหมือนกัน ส่วนสาย6ก้อใช้นิ้วกลางแตะให้บอด

ส่วนท่อนโซโล ผมเล่นเหมือนคุณต้อง อัสสัมชันระยองนะ
1|-------------------------------------------------------------------------------------
2|------------------------------------------------------------------------------------
3|----9-9-9-8-9-9-11-11----9-9-9-8-9-9--6-6-6-6-6-6-----9-9-11-11--13--13--------------
4|-----------------------------------------------------------------------------------
5|----7-7-7-6-7-7--9--9-----7-7-7-6-7-7--4-4-4-4-4-4------7-7--9-9----11--11-------
6|---------------------------------------------------------------------------------

1|-------------------------------------------------------------------------------------
2|--------------------5-7---------------5---4--5-------------------------------------------
3|------4-4-4-4-6-------4-4-4-4-6-----4--4------------------------------------------------


ปล. สำหรับแบบนี้เป็นการเล่นเหมือนในคอนเสิร์ตนะงับ แกะเองน่าจะคล้ายแต่อาจจะมีปัญหาเรื่องอาจจะเสียงสูงไปหน่อยหรือต่ำไปหน่อย พอดีแกะวันนี้ ทั้งๆที่เพลงนี้มีมานานแล้วแต่ทำใมถึงกำลังมาแกะ
ก้อเพราะเพลงนี้เป็นเพลงอมตะคับ

ส่วนตัวกระผมเอง อยู่ม.3 พะเยาพิทยาคม กะลังจะขึ้น ม.4 ไม่มีสังกัดเพราะมือใหม่อยู่
คอร์ดเพลง ความเชื่อ

ความคิดเห็นเกี่ยวกับคอร์ดนี้

เวอร์ชั่นทั้งหมดของคอร์ดเพลงนี้

คอร์ดเพลง ความเชื่อ

160 | 15
โดย ไก่
เมื่อ 16 ปีที่แล้ว

คอร์ดเพลง ความเชื่อ

16 | 3
โดย เท็น
เมื่อ 12 ปีที่แล้ว

คอร์ดเพลง ความเชื่อ

0 | 0
โดย เบนซ์
เมื่อ 7 ปีที่แล้ว

คอร์ดเพลง ความเชื่อ

0 | 0
โดย ใครอะ
เมื่อ 13 ปีที่แล้ว

คอร์ดเพลง ความเชื่อ

0 | 0
โดย te
เมื่อ 14 ปีที่แล้ว

คอร์ดเพลง ความเชื่อ

0 | 0
โดย บ
เมื่อ 14 ปีที่แล้ว

คอร์ดเพลง ความเชื่อ

0 | 0
โดย ......
เมื่อ 14 ปีที่แล้ว

คอร์ดเพลง ความเชื่อ

0 | 0
โดย NICEMASTER
เมื่อ 14 ปีที่แล้ว

คอร์ดเพลง ความเชื่อ

0 | 0
โดย 555+
เมื่อ 14 ปีที่แล้ว

คอร์ดเพลง ความเชื่อ

0 | 0
โดย เคนนี่
เมื่อ 14 ปีที่แล้ว

คอร์ดเพลง ความเชื่อ

0 | 0
โดย ...
เมื่อ 15 ปีที่แล้ว

คอร์ดเพลง ความเชื่อ

0 | 0
โดย ...
เมื่อ 15 ปีที่แล้ว

คอร์ดเพลง ความเชื่อ

0 | 0
โดย nut
เมื่อ 15 ปีที่แล้ว

คอร์ดเพลง ความเชื่อ

0 | 0
โดย OkitaSochi๛วงกลมPPK๛
เมื่อ 15 ปีที่แล้ว

คอร์ดเพลง ความเชื่อ

0 | 0
โดย OkitaSochi๛วงกลม P.P.K.๛
เมื่อ 15 ปีที่แล้ว

คอร์ดเพลง ความเชื่อ

0 | 0
โดย aof_psycho
เมื่อ 15 ปีที่แล้ว

คอร์ดเพลง ความเชื่อ

0 | 0
โดย Doy 1A6 ลำปาง
เมื่อ 15 ปีที่แล้ว

คอร์ดเพลง ความเชื่อ

0 | 0
โดย Doy 1A6 ลำปาง
เมื่อ 15 ปีที่แล้ว

คอร์ดเพลง ความเชื่อ

0 | 0
โดย ต้อง
เมื่อ 15 ปีที่แล้ว

คอร์ดเพลง ความเชื่อ

0 | 0
โดย แจ๊ก สามเสน
เมื่อ 15 ปีที่แล้ว

คอร์ดเพลง ความเชื่อ

0 | 0
โดย แจ๊ก สามเสน
เมื่อ 15 ปีที่แล้ว

คอร์ดเพลง ความเชื่อ

0 | 0
โดย มะกรูด
เมื่อ 16 ปีที่แล้ว

เนื้อเพลง ความเชื่อ - บอดี้สแลม (Bodyslam)

Intro :

มันเกือบจะล้ม มันเหนื่อยมันล้า เหมือนแทบขาดใจ

เดินมาจนท้อไม่เจอจุดหมายปลายทางที่ฝัน

จะกลับได้ไหม ถ้าเดินต่อไปยากเย็นขนาดนั้น ยังถามใจ

ตลอดชีวิต ฉันเจอในสิ่งที่คิด

หรือมันจะเป็นอะไรที่ผิด และฉันเองที่หลงทาง

ชีวิตมันต้องเดินตามหาความฝัน หกล้มคลุกคลานเท่าไหร่

มันจะไปจบที่ตรงไหน เมื่อเดินเท่าไหร่มันก็ไปไม่ถึง
ดนตรี :

เดินต่อช้าๆ ไม่อยากปล่อยฝัน ให้มันหลุดมือ

ที่สั่งให้ฉันไปต่อก็คือความเชื่อเท่านั้น

ถ้าในวันนี้เรี่ยวแรงยังเหลือ ก็ยังต้องฝัน ต้องก้าวไป

ตลอดชีวิต ฉันเจอในสิ่งที่คิด

แม้ไม่ว่ามันจะถูกหรือผิด จะขอทำสุดหัวใจ

*ชีวิตมันต้องเดินตามหาความฝัน หกล้มคลุกคลานเท่าไหร่

มันจะไปจบที่ตรงไหน แต่จะยังไงก็ต้องไปให้ถึง

ที่สุดถ้ามันจะไม่คุ้ม แต่มันก็ดีที่อย่างน้อย

ได้จดจำว่าครั้งนึงเคยก้าวไป

แค่คนที่เชื่อในความฝันจะเหน็ดจะเหนื่อยก็ยังต้องเดินต่อไป
(Solo):

**ฉัน(แม้)ท้อแท้สักกี่ที ยังมีหวัง แม้พลาดพลั้งสักกี่ครั้งยังฝันไกล

แม้ฉันล้มฉันก็คงไม่ตาย ฉันยังไม่ตายฉันยังคงหายใจ
(ซ้ำ**/*)

***ฉัน(แม้)ท้อแท้สักกี่ที ยังมีหวัง แม้พลาดพลั้งสักกี่ครั้งยังฝันไกล

แม้ฉันล้มฉันก็คงไม่ตาย ฉันยังไม่ตายฉันยังคงหายใจ
(ซ้ำ***)
Outro : e Out...

Cover เพลงความเชื่อ


ยังไม่มี Cover เพลงนี้

[ ช่วยกันแบ่งปันคลิปเพลงที่คุณเล่นเอง ]

ฟังเพลง ความเชื่อ

งมงาย - บอดี้สแลม (Bodyslam)
เมื่อ 18 ปีที่แล้ว
ค้นพบคอร์ด 23 เวอร์ชั่น
แสงสุดท้าย - บอดี้สแลม (bodyslam)
เมื่อ 11 ปีที่แล้ว
ค้นพบคอร์ด 3 เวอร์ชั่น
ความรัก - บอดี้สแลม (Bodyslam)
เมื่อ 11 ปีที่แล้ว
ค้นพบคอร์ด 13 เวอร์ชั่น
เปราะบาง - บอดี้สแลม (bodyslam)
เมื่อ 11 ปีที่แล้ว
ค้นพบคอร์ด 5 เวอร์ชั่น
ปลายทาง - บอดี้สแลม (Bodyslam)
เมื่อ 18 ปีที่แล้ว
ค้นพบคอร์ด 27 เวอร์ชั่น
สักวันฉันจะดีพอ - บอดี้สแลม (Bodyslam)
เมื่อ 17 ปีที่แล้ว
ค้นพบคอร์ด 14 เวอร์ชั่น
อกหัก - บอดี้สแลม (Bodyslam)
เมื่อ 14 ปีที่แล้ว
ค้นพบคอร์ด 63 เวอร์ชั่น
ความรักทำให้คนตาบอด - บอดี้สแลม (Bodyslam)
เมื่อ 16 ปีที่แล้ว
ค้นพบคอร์ด 45 เวอร์ชั่น
ขอบฟ้า - บอดี้สแลม (Bodyslam)
เมื่อ 16 ปีที่แล้ว
ค้นพบคอร์ด 29 เวอร์ชั่น
คิดฮอด - บอดี้สแลม (bodyslam)
เมื่อ 11 ปีที่แล้ว
ค้นพบคอร์ด 1 เวอร์ชั่น
ความเชื่อ - บอดี้สแลม (Bodyslam)
เมื่อ 16 ปีที่แล้ว
ค้นพบคอร์ด 23 เวอร์ชั่น
พูดในใจ - บอดี้สแลม (Bodyslam)
เมื่อ 16 ปีที่แล้ว
ค้นพบคอร์ด 13 เวอร์ชั่น
อากาศ - บอดี้สแลม (Bodyslam)
เมื่อ 17 ปีที่แล้ว
ค้นพบคอร์ด 24 เวอร์ชั่น
คนที่ถูกรัก - บอดี้สแลม (BodySlam)
เมื่อ 16 ปีที่แล้ว
ค้นพบคอร์ด 16 เวอร์ชั่น
เจ็บจนวันนี้ - บอดี้สแลม (Bodyslam)
เมื่อ 16 ปีที่แล้ว
ค้นพบคอร์ด 23 เวอร์ชั่น
นาฬิกาตาย - บอดี้สแลม (Bodyslam)
เมื่อ 14 ปีที่แล้ว
ค้นพบคอร์ด 23 เวอร์ชั่น
ยาพิษ - บอดี้สแลม (BodySlam)
เมื่อ 14 ปีที่แล้ว
ค้นพบคอร์ด 28 เวอร์ชั่น
หวั่นไหว - บอดี้สแลม (Bodyslam)
เมื่อ 18 ปีที่แล้ว
ค้นพบคอร์ด 30 เวอร์ชั่น
ห้ามใจ - บอดี้สแลม (Bodyslam)
เมื่อ 16 ปีที่แล้ว
ค้นพบคอร์ด 24 เวอร์ชั่น
Sticker (สติ๊กเกอร์) - บอดี้สแลม (BODYSLAM)
เมื่อ 11 ปีที่แล้ว
ค้นพบคอร์ด 2 เวอร์ชั่น