คอร์ดเพลง ความเชื่อ - บอดี้สแลม (Bodyslam)

Version 13
แกะโดย ...
เมื่อ 10 ส.ค.2549,17:55น.
ดู 581 ครั้ง
1----------------------------------                                                                                               
2---------------4----------------4--
3-----------4----------------4-----
4------2------------------2--------
5--4-----------------2-------------
6---------------------------------

1--------------------------------------0--
2---------------4-----------4-----------4-
3-----------2------------2-----4-4------
4------2--------------2------------
5--0--------------0----------------
6---------------------------------

1-----------------------------0-----
2---------------4--------------4-
3-----------2-------4--4-------------
4------2--------------------------
5--0------------------------------
6---------------------------------
ตลอดชีวิต ฉันเชื่อในสิ่งที่คิด....
C#m B A B
e------------------0--------------------0--------------------0-------------
---------------4--------------------4--------------------4-----------4-----
-----------4--------------------4--------------------4---------------4-----
-----------------------------------------------------------------------2-----
----4-------------------2--------------------0-----------------------2-----
E----------------------------------------------------------------------------
ก่อนขึ้น " เดินต่อช้าๆ "
3) ---------12/14-12-------------12/14-12
4) -----11--------------12-10-12------------
ต่อไปท่อนกลาง
1-----------------------------------------------------------------------------------------------
2-----------------------------------------------------------------------------------------------
3--------/9-9-9-88-9-11-11-----9-9-9-88-9-9---------------------------------------------
4---------------------------------------------------9-9-9-9-----------------------------
5--------------------------------------------------------------------6-/8/-10/ 121212------------------
6-----------------------------------------------------------------------------------------------

1------------------------------------------------------------------------------------------------
2------------------------------------------------------------------------------------------------
3------------------9-11-----------------9-11-9-------------------------------------------------
4----9-9-9-911----------9-9-9-911--------------9-9------------------------------------------
5------------------------------------------------------------------------------------------------
6------------------------------------------------------------------------------------------------
อันนี้ตรง " ฉันท้อแท้ "
2)-----14-12/14-------------------------12/14-------------------------------------------------------
3)------------------12/14-12---------------------12/14-12-------------12/14-12---12/14-14
4)-------------------------------14-12-14----------------------14-12-14-----------------------------
/ ไสล์สายงับ
h คือ hammer on เช่น 7h9 คือนิ้วชี้กดเฟรส7 แล้วดีดแล้วใช้นิ้วกลางกดเฟรส9
คอร์ดเพลง ความเชื่อ

ความคิดเห็นเกี่ยวกับคอร์ดนี้

เวอร์ชั่นทั้งหมดของคอร์ดเพลงนี้

คอร์ดเพลง ความเชื่อ

160 | 15
โดย ไก่
เมื่อ 16 ปีที่แล้ว

คอร์ดเพลง ความเชื่อ

16 | 3
โดย เท็น
เมื่อ 12 ปีที่แล้ว

คอร์ดเพลง ความเชื่อ

0 | 0
โดย เบนซ์
เมื่อ 7 ปีที่แล้ว

คอร์ดเพลง ความเชื่อ

0 | 0
โดย ใครอะ
เมื่อ 13 ปีที่แล้ว

คอร์ดเพลง ความเชื่อ

0 | 0
โดย te
เมื่อ 14 ปีที่แล้ว

คอร์ดเพลง ความเชื่อ

0 | 0
โดย บ
เมื่อ 14 ปีที่แล้ว

คอร์ดเพลง ความเชื่อ

0 | 0
โดย ......
เมื่อ 14 ปีที่แล้ว

คอร์ดเพลง ความเชื่อ

0 | 0
โดย NICEMASTER
เมื่อ 14 ปีที่แล้ว

คอร์ดเพลง ความเชื่อ

0 | 0
โดย 555+
เมื่อ 14 ปีที่แล้ว

คอร์ดเพลง ความเชื่อ

0 | 0
โดย เคนนี่
เมื่อ 14 ปีที่แล้ว

คอร์ดเพลง ความเชื่อ

0 | 0
โดย ...
เมื่อ 15 ปีที่แล้ว

คอร์ดเพลง ความเชื่อ

0 | 0
โดย ...
เมื่อ 15 ปีที่แล้ว

คอร์ดเพลง ความเชื่อ

0 | 0
โดย nut
เมื่อ 15 ปีที่แล้ว

คอร์ดเพลง ความเชื่อ

0 | 0
โดย OkitaSochi๛วงกลมPPK๛
เมื่อ 15 ปีที่แล้ว

คอร์ดเพลง ความเชื่อ

0 | 0
โดย OkitaSochi๛วงกลม P.P.K.๛
เมื่อ 15 ปีที่แล้ว

คอร์ดเพลง ความเชื่อ

0 | 0
โดย aof_psycho
เมื่อ 15 ปีที่แล้ว

คอร์ดเพลง ความเชื่อ

0 | 0
โดย Doy 1A6 ลำปาง
เมื่อ 15 ปีที่แล้ว

คอร์ดเพลง ความเชื่อ

0 | 0
โดย Doy 1A6 ลำปาง
เมื่อ 15 ปีที่แล้ว

คอร์ดเพลง ความเชื่อ

0 | 0
โดย ต้อง
เมื่อ 15 ปีที่แล้ว

คอร์ดเพลง ความเชื่อ

0 | 0
โดย แจ๊ก สามเสน
เมื่อ 15 ปีที่แล้ว

คอร์ดเพลง ความเชื่อ

0 | 0
โดย แจ๊ก สามเสน
เมื่อ 15 ปีที่แล้ว

คอร์ดเพลง ความเชื่อ

0 | 0
โดย มะกรูด
เมื่อ 16 ปีที่แล้ว

เนื้อเพลง ความเชื่อ - บอดี้สแลม (Bodyslam)

Intro :

มันเกือบจะล้ม มันเหนื่อยมันล้า เหมือนแทบขาดใจ

เดินมาจนท้อไม่เจอจุดหมายปลายทางที่ฝัน

จะกลับได้ไหม ถ้าเดินต่อไปยากเย็นขนาดนั้น ยังถามใจ

ตลอดชีวิต ฉันเจอในสิ่งที่คิด

หรือมันจะเป็นอะไรที่ผิด และฉันเองที่หลงทาง

ชีวิตมันต้องเดินตามหาความฝัน หกล้มคลุกคลานเท่าไหร่

มันจะไปจบที่ตรงไหน เมื่อเดินเท่าไหร่มันก็ไปไม่ถึง
ดนตรี :

เดินต่อช้าๆ ไม่อยากปล่อยฝัน ให้มันหลุดมือ

ที่สั่งให้ฉันไปต่อก็คือความเชื่อเท่านั้น

ถ้าในวันนี้เรี่ยวแรงยังเหลือ ก็ยังต้องฝัน ต้องก้าวไป

ตลอดชีวิต ฉันเจอในสิ่งที่คิด

แม้ไม่ว่ามันจะถูกหรือผิด จะขอทำสุดหัวใจ

*ชีวิตมันต้องเดินตามหาความฝัน หกล้มคลุกคลานเท่าไหร่

มันจะไปจบที่ตรงไหน แต่จะยังไงก็ต้องไปให้ถึง

ที่สุดถ้ามันจะไม่คุ้ม แต่มันก็ดีที่อย่างน้อย

ได้จดจำว่าครั้งนึงเคยก้าวไป

แค่คนที่เชื่อในความฝันจะเหน็ดจะเหนื่อยก็ยังต้องเดินต่อไป
(Solo):

**ฉัน(แม้)ท้อแท้สักกี่ที ยังมีหวัง แม้พลาดพลั้งสักกี่ครั้งยังฝันไกล

แม้ฉันล้มฉันก็คงไม่ตาย ฉันยังไม่ตายฉันยังคงหายใจ
(ซ้ำ**/*)

***ฉัน(แม้)ท้อแท้สักกี่ที ยังมีหวัง แม้พลาดพลั้งสักกี่ครั้งยังฝันไกล

แม้ฉันล้มฉันก็คงไม่ตาย ฉันยังไม่ตายฉันยังคงหายใจ
(ซ้ำ***)
Outro : e Out...

Cover เพลงความเชื่อ


ยังไม่มี Cover เพลงนี้

[ ช่วยกันแบ่งปันคลิปเพลงที่คุณเล่นเอง ]

ฟังเพลง ความเชื่อ

งมงาย - บอดี้สแลม (Bodyslam)
เมื่อ 18 ปีที่แล้ว
ค้นพบคอร์ด 23 เวอร์ชั่น
แสงสุดท้าย - บอดี้สแลม (bodyslam)
เมื่อ 11 ปีที่แล้ว
ค้นพบคอร์ด 3 เวอร์ชั่น
ความรัก - บอดี้สแลม (Bodyslam)
เมื่อ 11 ปีที่แล้ว
ค้นพบคอร์ด 13 เวอร์ชั่น
เปราะบาง - บอดี้สแลม (bodyslam)
เมื่อ 11 ปีที่แล้ว
ค้นพบคอร์ด 5 เวอร์ชั่น
ปลายทาง - บอดี้สแลม (Bodyslam)
เมื่อ 18 ปีที่แล้ว
ค้นพบคอร์ด 27 เวอร์ชั่น
สักวันฉันจะดีพอ - บอดี้สแลม (Bodyslam)
เมื่อ 17 ปีที่แล้ว
ค้นพบคอร์ด 14 เวอร์ชั่น
อกหัก - บอดี้สแลม (Bodyslam)
เมื่อ 14 ปีที่แล้ว
ค้นพบคอร์ด 63 เวอร์ชั่น
ความรักทำให้คนตาบอด - บอดี้สแลม (Bodyslam)
เมื่อ 16 ปีที่แล้ว
ค้นพบคอร์ด 45 เวอร์ชั่น
ขอบฟ้า - บอดี้สแลม (Bodyslam)
เมื่อ 16 ปีที่แล้ว
ค้นพบคอร์ด 29 เวอร์ชั่น
คิดฮอด - บอดี้สแลม (bodyslam)
เมื่อ 11 ปีที่แล้ว
ค้นพบคอร์ด 1 เวอร์ชั่น
ความเชื่อ - บอดี้สแลม (Bodyslam)
เมื่อ 16 ปีที่แล้ว
ค้นพบคอร์ด 23 เวอร์ชั่น
พูดในใจ - บอดี้สแลม (Bodyslam)
เมื่อ 16 ปีที่แล้ว
ค้นพบคอร์ด 13 เวอร์ชั่น
อากาศ - บอดี้สแลม (Bodyslam)
เมื่อ 17 ปีที่แล้ว
ค้นพบคอร์ด 24 เวอร์ชั่น
คนที่ถูกรัก - บอดี้สแลม (BodySlam)
เมื่อ 16 ปีที่แล้ว
ค้นพบคอร์ด 16 เวอร์ชั่น
เจ็บจนวันนี้ - บอดี้สแลม (Bodyslam)
เมื่อ 16 ปีที่แล้ว
ค้นพบคอร์ด 23 เวอร์ชั่น
นาฬิกาตาย - บอดี้สแลม (Bodyslam)
เมื่อ 14 ปีที่แล้ว
ค้นพบคอร์ด 23 เวอร์ชั่น
ยาพิษ - บอดี้สแลม (BodySlam)
เมื่อ 14 ปีที่แล้ว
ค้นพบคอร์ด 28 เวอร์ชั่น
หวั่นไหว - บอดี้สแลม (Bodyslam)
เมื่อ 18 ปีที่แล้ว
ค้นพบคอร์ด 30 เวอร์ชั่น
ห้ามใจ - บอดี้สแลม (Bodyslam)
เมื่อ 16 ปีที่แล้ว
ค้นพบคอร์ด 24 เวอร์ชั่น
Sticker (สติ๊กเกอร์) - บอดี้สแลม (BODYSLAM)
เมื่อ 11 ปีที่แล้ว
ค้นพบคอร์ด 2 เวอร์ชั่น