คอร์ดเพลง น้ำตาแดช - โกไข่กับนายสน

Version 12
แกะโดย นายยูยะ
เมื่อ 31 ก.ค.2550,19:31น.
ดู 898 ครั้ง

<>คือไม่ต้องดีดนะ ( ) ที่ต้องเน้นอ่ะนะ / สไล้นะ ส่วนยกอ่ะตรงๆเลยนะ
INTRO: Am D/Am/C D/G
e------------------------------------------------------------------
b------------------------------------------------------------------
g-------------------------------4-----------------------------------
d-------------------5---7----------7----5------------------5----
a--------5---7---------------------------------7-----5---7--------
e---------------------------------------------------------------------

solo=G/C/G/Am D/Am/C D/G G7 solo พาดที่2อ่ะรีบดีดหน่อยนะเดี๋ยวจะไม่ทันเพลงอิอิอิ
e--------------------------------------------------------------------------------------------------------
b---------------------------------------------------------------------------------------------------------
g------------------------------------------------------------------------------------------------------------
d------------------------------------------5---7---(5)--7/9---5--7--9-/-<7>-/-5-----------------
a------(5)---(5)---5--7--(5)---5--7--------------------------------------------------------7------------
e-----------------------------------------------------------------------------------------------------

e--------------------------------------------------------------------------------------------------------
b---------------------------------------------------------------------------------------------------------
g------------------------12---14--(14ยก)-14---12---------12-----------------------------------------
d--------12-----14----------------------------------- 14--------14----------------------------------
a-----------------------------------------------------------------------------------------------------
e-----------------------------------------------------------------------------------------------------

อันนี้เราแถมให้solo ท่อนที่เป็น เมโลดี้(melody) อ่ะ แล้วคนนะว่าจะเล่นสูงหรือต่ำ
e--------------------------------------------------------------------------------------------------------
b---------------------------------------------------------------------------------- -15-----------------
g--------11-12--(14)-12-11------11--12--(14)--16--14--12----------------16-14-/(16)/12-
d---14----------------------- -(14)-----------------------------------14-12-14-----------------
a---------------------------------------------------------------------------------------------------------
e--------------------------------------------------------------------------------------------------------

ไม่เหมือนให้<<<ถีบหน้า>>>เลย!*รับประกันจาก นาย u.ya.ไล้ (วง)
จากคุณ กิตติทัต เกล็ดเงิน k3
คอร์ดเพลง น้ำตาแดช

ความคิดเห็นเกี่ยวกับคอร์ดนี้

เวอร์ชั่นทั้งหมดของคอร์ดเพลงนี้

คอร์ดเพลง น้ำตาแดช

0 | 0
โดย โ
เมื่อ 15 ปีที่แล้ว

คอร์ดเพลง น้ำตาแดช

0 | 0
โดย นายยูยะ
เมื่อ 15 ปีที่แล้ว

คอร์ดเพลง น้ำตาแดช

0 | 0
โดย โจ้
เมื่อ 15 ปีที่แล้ว

คอร์ดเพลง น้ำตาแดช

0 | 0
โดย นาย
เมื่อ 15 ปีที่แล้ว

คอร์ดเพลง น้ำตาแดช

0 | 0
โดย อ้วน_tu
เมื่อ 15 ปีที่แล้ว

คอร์ดเพลง น้ำตาแดช

0 | 0
โดย ZarMuRai
เมื่อ 15 ปีที่แล้ว

คอร์ดเพลง น้ำตาแดช

0 | 0
โดย ศร เด็กกรุงเทพ
เมื่อ 15 ปีที่แล้ว

คอร์ดเพลง น้ำตาแดช

0 | 0
โดย 1234
เมื่อ 15 ปีที่แล้ว

คอร์ดเพลง น้ำตาแดช

0 | 0
โดย มือกีต้าร์วงลวนลาม
เมื่อ 15 ปีที่แล้ว

คอร์ดเพลง น้ำตาแดช

0 | 0
โดย Pee kung
เมื่อ 15 ปีที่แล้ว

คอร์ดเพลง น้ำตาแดช

0 | 0
โดย Pee kung
เมื่อ 15 ปีที่แล้ว

คอร์ดเพลง น้ำตาแดช

0 | 0
โดย Zaio
เมื่อ 16 ปีที่แล้ว

คอร์ดเพลง น้ำตาแดช

0 | 0
โดย Zaio
เมื่อ 16 ปีที่แล้ว

เนื้อเพลง น้ำตาแดช - โกไข่กับนายสน

น้ำตาแดช โกไข่กับนายสน

หนีความเสียใจมานั่งในผับ
แต่ความเสียใจก็กลับขี่มอเตอร์ไซด์ตามมา
มาจอดหน้าร้าน เธอมากับหนุ่มโนวา
ทำให้เราแทบบ้า ดูเธอหน้าคนใจร้าย

เช็คบิลไม่ทัน กลั้นใจสักที
แต่บ๋อยก็มาสะกิด นั่นแฟนพี่บ่าวใช่ไหม
ได้แต่ส่ายหัว น้องชายจำคนผิดไป
สั่งเช็คบิลเร็วไว ก็กลัวน้ำตาจะเล็ด

* แต่โอ้วะโอ้ พลันเสียงดนตรีบรรเลง
ได้ยินเป็นเพลง ที่ว่ารักแท้แพ้แดช
มันเชื่อไม่ได้ ขี้หกพันแมด
+++เราขี่แดช มันยังแพ้โนวา

ขี่มอเตอร์ไซด์ออกไปจากผับ
บิดแมดไม่กลัวโดนจับ
กลัวความเสียใจตามมา
ให้ลมแรงๆ พัดเธอให้แห้งจากตา
จำเอาไว้เลยว่า รักแท้แพ้คนหลายใจ

Solo ????????????

(ซ้ำ *,**)

ให้ลมแรงๆ พัดเธอให้แห้งจากตา
จำเอาไว้เลยว่า รักแท้แพ้คนหลายใจ

Cover เพลงน้ำตาแดช


ยังไม่มี Cover เพลงนี้

[ ช่วยกันแบ่งปันคลิปเพลงที่คุณเล่นเอง ]

ฟังเพลง น้ำตาแดช