คอร์ดเพลง แสงสว่าง - อีโบล่า

Version 3
แกะโดย Barnyenz
เมื่อ 25 ส.ค.2548,20:33น.
ดู 676 ครั้ง
คนที่ชื่อ มีน

เอาของผมมาทั้งดุ้นเลยนะเนี่ย

แต่ไม่เปนไร เอาของจิงไป

แสงสว่าง

intro ( 2 times )
D:-------------------------------------------------------------------------------
A:-------------------------------------------------------------------------------
F:-------------------------------------------------------------------------------
C:--2-2-2-2--0-2-2-0-2-0-2--0-2-2-0-2-0-2-10-5-5-10-5--9-10-10-9-10-5-10
G:--2-2-2-2--0-2-2-0-2-0-2--0-2-2-0-2-0-2-10-5-5-10-5--9-10-10-9-10-5-10 ( 2 times )
C:--2-2-2-2--0-2-2-0-2-0-2--0-2-2-0-2-0-2--10-5-5-10-5--9-10-10-9-10-5-10
x x x x
D:-------------------------------------------------------------------------------
A:-------------------------------------------------------------------------------
F:-------------------------------------------------------------------------------
C:--0-2-0-2-0-2-0-2-0-2-0-2-0-2-0-2----------------------------------
G:--0-2-0-2-0-2-0-2-0-2-0-2-0-2-0-2----------------------------------
C:--0-2-0-2-0-2-0-2-0-2-0-2-0-2-0-2----------------------------------

ยังไม่เจอหนทาง,ทางที่ใจต้องไป
D:-------------------------------------------------------------------------------
A:-------------------------------------------------------------------------------
F:-------------------------------------------------------------------------------
C:--2---0---10---12---------------------------------------------------------
G:--2---0---10---12---------------------------------------------------------
C:--2---0---10---12---------------------------------------------------------

มันคืบคลาน
D:-------------------------------------------------------------------------------
A:-------------------------------------------------------------------------------
F:-------------------------------------------------------------------------------
C:-0-2-2-2-2-2-2-2-2-0-2-2-2-2-2-2-2-2-9-9-9-9-9-9-9-9-10-10-10
G:-0-2-2-2-2-2-2-2-2-0-2-2-2-2-2-2-2-2-9-9-9-9-9-9-9-9-10-10-10
C:-0-2-2-2-2-2-2-2-2-0-2-2-2-2-2-2-2-2-9-9-9-9-9-9-9-9-10-10-10
x x x x x x x x x x x x x x x x x x x x x x x x x x x x x x x

ต้องไปสู่แสงสว่าง
D:-------------------------------------------------------------------------------
A:-------------------------------------------------------------------------------
F:-------------------------------------------------------------------------------
C:--2----10-12---------------------------------------------------------------
G:--2----10-10---------------------------------------------------------------
C:--2----10-10---------------------------------------------------------------

หรือความมืดมน
D:-------------------------------------------------------------------------------
A:-------------------------------------------------------------------------------
F:-------------------------------------------------------------------------------
C:--2-2--2-2--2-2--2-2-2-2--2--2--2--2-2--2-2--0-0-0-0
G:--2-2--2-2--2-2--2-2-2-2--2--2--2--2-2--2-2--0-0-0-0 ( 2 times )
C:--2-2--2-2--2-2-2-2--2--2--2--2-2--2-2--2-2--0-0-0-0
x x x x x x x x x x x x x x x x x x x x x x x x x x x x x

มันอยู่ที่ไหน
D:-------------------------------------------------------------------------
A:-------------------------------------------------------------------------
F:--------------------------------------------------------------------------
C:---2-0-2-0-2-0--2-0-2-0-2-0----------
G:---2-0-2-0-2-0--2-0-2-0-2-0---------- ( 2 times )
C:---2-0-2-0-2-0--2-0-2-0-2-0----------

D:-------------------------------------------------------------------------
A:-------------------------------------------------------------------------
F:-------------------------------------------------------------- ( มันคืบคลานเข้ามา อย่างช้าๆ )
C:---10-5-10-5-10-5--10-5-10-5-10-5 -10-10-10-10-10-10-10
G:---10-5-10-5-10-5--10-5-10-5-10-5 ( 2 times ) -10-10-10-10-10-10-10
C:---10-5-10-5-10-5--10-5-10-5-10-5 -10-10-10-10-10-10-10

จะทำอะไร
D:-------------------------------------------------------------------------------
A:-------------------------------------------------------------------------------
F:-------------------------------------------------------------------------------
C:--0-2-0-2-0-2-0-2-0-2-0-2-0-2-0-2----------------------------------
G:--0-2-0-2-0-2-0-2-0-2-0-2-0-2-0-2----------------------------------
C:--0-2-0-2-0-2-0-2-0-2-0-2-0-2-0-2----------------------------------
คอร์ดเพลง แสงสว่าง

ความคิดเห็นเกี่ยวกับคอร์ดนี้

เนื้อเพลง แสงสว่าง - อีโบล่า

แสงสว่าง
ola

ยังไม่เจอหนทาง แม้ในหัวใจก็ยังดิ้นรน
ใจก็ยังต้องทน ต้องการที่จะไปจากตรงนี้
ความมืดมนทุกวัน คืบคลานๆเข้ามาทุกที
ชีวิตคงต้องมี ซักวันที่มันก้อาจจะแพ้

*มันคืบคลานเข้ามา มัน...
มัน...ใจจิงเลย อย่างช้าๆ

**ต้องไปสู่แสงสว่าง หนทางสู่แสงสว่างอยู่ที่ไหน
บอกกันให้รู้ที
ต้องไปสู่แสงสว่าง ดิ้นรนเพื่อแสงสว่าง
จากตรงนี้ ก็มันคือแสงไฟ

ทางที่ใจต้องไป ถึงไกลเท่าไรก็ยังต้องไป
ความมืดมนมากมาย ก็ยังครอบคลุมและเข้ามาหา
ใจทุรนทุรายเหมือนคนหนีตายที่ตรงเข้ามา
กลัวว่าใจซักวันต้องมาแพ้ภัยให้...

(*,**)

ทุกความมืดมนไม่มีวันสิ้นสุด
หรือความมืดมนนั้นคือใจของเรา
มันอยู่ที่ใจ...

(**,**)

Cover เพลงแสงสว่าง


ยังไม่มี Cover เพลงนี้

[ ช่วยกันแบ่งปันคลิปเพลงที่คุณเล่นเอง ]

ฟังเพลง แสงสว่าง

สิ่งที่ฉันเป็น - อีโบล่า (Ebola)
เมื่อ 17 ปีที่แล้ว
ค้นพบคอร์ด 38 เวอร์ชั่น
วันที่ไม่มีจริง - อีโบล่า (Ebola)
เมื่อ 13 ปีที่แล้ว
ค้นพบคอร์ด 2 เวอร์ชั่น
การจากลา - อีโบล่า
เมื่อ 15 ปีที่แล้ว
ค้นพบคอร์ด 2 เวอร์ชั่น
กลับสู่จุดเริ่มต้น - อีโบล่า
เมื่อ 17 ปีที่แล้ว
ค้นพบคอร์ด 11 เวอร์ชั่น
ความเป็นไป - อีโบล่า (Ebola)
เมื่อ 18 ปีที่แล้ว
ค้นพบคอร์ด 11 เวอร์ชั่น
Survivor - อีโบล่า (Ebola)
เมื่อ 16 ปีที่แล้ว
ค้นพบคอร์ด 12 เวอร์ชั่น
แสงสว่าง - อีโบล่า
เมื่อ 17 ปีที่แล้ว
ค้นพบคอร์ด 4 เวอร์ชั่น
Get Out - อีโบล่า (Ebola)
เมื่อ 18 ปีที่แล้ว
ค้นพบคอร์ด 7 เวอร์ชั่น
ทางที่ดีกว่า - อีโบล่า (Ebola)
เมื่อ 12 ปีที่แล้ว
ยังไม่มีคอร์ด
ในความเป็นคน - อีโบล่า (Ebola)
เมื่อ 18 ปีที่แล้ว
ค้นพบคอร์ด 8 เวอร์ชั่น
ดาวดวงสุดท้าย - อีโบล่า ( Ebola )
เมื่อ 15 ปีที่แล้ว
ค้นพบคอร์ด 6 เวอร์ชั่น
ทรมาน - อีโบล่า(Ebola)
เมื่อ 14 ปีที่แล้ว
ค้นพบคอร์ด 2 เวอร์ชั่น
เอาให้ตาย - อีโบล่า (EBOLA)
เมื่อ 13 ปีที่แล้ว
ยังไม่มีคอร์ด
จำ - อีโบล่า (Ebola)
เมื่อ 18 ปีที่แล้ว
ค้นพบคอร์ด 3 เวอร์ชั่น
ฝุ่น - อีโบล่า
เมื่อ 17 ปีที่แล้ว
ยังไม่มีคอร์ด
ทรมาณ - อีโบล่า (Ebola)
เมื่อ 17 ปีที่แล้ว
ค้นพบคอร์ด 1 เวอร์ชั่น
ฉุดฉันขึ้นไป - อีโบล่า (Ebola)
เมื่อ 13 ปีที่แล้ว
ยังไม่มีคอร์ด
วิถีทาง - อีโบล่า (Ebola)
เมื่อ 15 ปีที่แล้ว
ค้นพบคอร์ด 3 เวอร์ชั่น
เข็มทิศ - อีโบล่า ( Ebola )
เมื่อ 15 ปีที่แล้ว
ค้นพบคอร์ด 4 เวอร์ชั่น
ทางเลือก - อีโบล่า
เมื่อ 15 ปีที่แล้ว
ค้นพบคอร์ด 2 เวอร์ชั่น