คอร์ดเพลง เจ้าตาก - คาราบาว

Version 4
แกะโดย [DX]๐GJ_Fernie๐
เมื่อ 6 มี.ค.2550,13:56น.
ดู 672 ครั้ง

แก้นิดนึงคับ
1)-----------------------------------------------------1----------------------------1-------------
2)-----------------------------------------5h8h7h5--5h8h7h5--5h8h7h5----------------
3)-----------------------------5h7----7^-------------------------7----------------------------
4)-----------------5h7-----7-----7-0----------------------------------------------------------
5)---------5/7-0------7-0----------------------------------------------------------------------
6)--12/5-----------------------------------------------------------------------------------------

1)---------12--10--12----12----15^15-----------------------------------------------------
2)--8/12---------------12----------------------------------------------------------------------
3)--------------------------------------------------------------------------------------------------
4)---------------------------------------------------------------------------------------------------
5)---------------------------------------------------------------------------------------------------
6)--------------------------------------------------------------------------------------------------

คอร์ดเพลง เจ้าตาก

ความคิดเห็นเกี่ยวกับคอร์ดนี้

เวอร์ชั่นทั้งหมดของคอร์ดเพลงนี้

เนื้อเพลง เจ้าตาก - คาราบาว

ชื่อเพลง : เจ้าตาก




INTRO: (2 ครั้ง)


ยุทธศาสตร์ยิ่งใหญ่ ความตั้งใจเด็ดเดี่ยว

มื้อนี้เราจะเคี้ยวข้าว และทุบหม้อข้าว

ตีแหกฝ่าวงล้อม ลุยพม่าข้าศึก

นึกถึงความเป็นไทย ดีกว่าไปเป็นทาส

* สองมือถือดาบอย่างมั่นใจ

นักรบไทยของพระเจ้าตาก

ฝากฝังกรุงอยุธยา

วันข้างหน้าข้าจะมาทวงคืน

แผ่นดินไทยดาลเดือด ทัพข้าศึกรุมล้อม

มัวแต่กล่อมสตรี เริงโลกีย์เป็นหลัก

นักรบกลายเป็น+++ พบกับความปราชัย

เจ้าตากทนไม่ได้ แผ่นดินไทยเป็นหลัก

นักรบคือนักรบ นักสู้แห่งกรุงศรี

ตีฝ่าทัพตองอู ตายหรืออยู่ไม่สําคัญ

คืนนี้จันทร์หลับไหล แหกวงในวงล้อม

อ้อมออกจากกรุงศรี ไปเข้าตีเมืองจันทน์
SOLO: (2 ครั้ง)


ยึดเมืองจันทบุรี เป็นชุมนุมเจ้าตาก

ตีชุมนุมต่างๆ ตีเจ้าฝางให้แตก

ทบทวนความพ่ายแพ้ แก้ไขยุทธวิธี

รวมชุมนุมที่มี ก่อนโจมตีเจ้าฝาง

พ่ายแพ้เป็นบทเรียน ทําจากเล็กไปใหญ่

เจ้าฝางชะล่าใจ ในไม่นานก็แตก

จากอยุธยา มาเมืองจันทบุรี

มากรุงธนบุรี ไทยจึงมีเอกราช

จากอยุธยา มาเมืองจันทบุรี

มากรุงธนบุรี ตากสินมหาราช
SOLO: (4 ครั้ง)

(ซํ้า * 6 ครั้ง...e)


Cover เพลงเจ้าตาก


ยังไม่มี Cover เพลงนี้

[ ช่วยกันแบ่งปันคลิปเพลงที่คุณเล่นเอง ]

ฟังเพลง เจ้าตาก

ทะเลใจ - คาราบาว
เมื่อ 16 ปีที่แล้ว
ค้นพบคอร์ด 11 เวอร์ชั่น
เดือนเพ็ญ - คาราบาว
เมื่อ 19 ปีที่แล้ว
ค้นพบคอร์ด 15 เวอร์ชั่น
คนเก็บฟืน - คาราบาว
เมื่อ 18 ปีที่แล้ว
ค้นพบคอร์ด 10 เวอร์ชั่น
สัญญาหน้าฝน - คาราบาว
เมื่อ 14 ปีที่แล้ว
ค้นพบคอร์ด 6 เวอร์ชั่น
รั้วทะเล - คาราบาว
เมื่อ 15 ปีที่แล้ว
ค้นพบคอร์ด 2 เวอร์ชั่น
วณิพก - คาราบาว
เมื่อ 20 ปีที่แล้ว
ค้นพบคอร์ด 18 เวอร์ชั่น
รักต้องสู้ - คาราบาว
เมื่อ 15 ปีที่แล้ว
ค้นพบคอร์ด 17 เวอร์ชั่น
ลุงขี้เมา - คาราบาว
เมื่อ 20 ปีที่แล้ว
ค้นพบคอร์ด 12 เวอร์ชั่น
กัญชา - คาราบาว
เมื่อ 20 ปีที่แล้ว
ค้นพบคอร์ด 9 เวอร์ชั่น
นางงามตู้กระจก - คาราบาว
เมื่อ 18 ปีที่แล้ว
ค้นพบคอร์ด 6 เวอร์ชั่น
หลงวัฒน์ - คาราบาว
เมื่อ 15 ปีที่แล้ว
ค้นพบคอร์ด 8 เวอร์ชั่น
ผู้ปิดทองหลังพระ คอร์ด - แอ๊ด คาราบาว
เมื่อ 11 ปีที่แล้ว
ค้นพบคอร์ด 2 เวอร์ชั่น
คนล่าฝัน - คาราบาว
เมื่อ 14 ปีที่แล้ว
ค้นพบคอร์ด 3 เวอร์ชั่น
เจ้าตาก - คาราบาว
เมื่อ 16 ปีที่แล้ว
ค้นพบคอร์ด 9 เวอร์ชั่น
เพื่อชีวิตติดล้อ - คาราบาว
เมื่อ 13 ปีที่แล้ว
ค้นพบคอร์ด 2 เวอร์ชั่น
แร้งคอย - คาราบาว
เมื่อ 16 ปีที่แล้ว
ค้นพบคอร์ด 8 เวอร์ชั่น
มนต์เพลงคาราบาว - คาราบาว
เมื่อ 20 ปีที่แล้ว
ค้นพบคอร์ด 2 เวอร์ชั่น
ยายสำอาง - คาราบาว
เมื่อ 16 ปีที่แล้ว
ค้นพบคอร์ด 3 เวอร์ชั่น
คนหนังเหนียว - คาราบาว
เมื่อ 15 ปีที่แล้ว
ค้นพบคอร์ด 7 เวอร์ชั่น
บัวลอย - คาราบาว
เมื่อ 16 ปีที่แล้ว
ค้นพบคอร์ด 10 เวอร์ชั่น