คอร์ดเพลง ปลายทาง - บอดี้สแลม (Bodyslam)

Version 15
แกะโดย Bert
เมื่อ 7 เม.ย.2549,03:42น.
ดู 1317 ครั้ง
intro (วน2รอบนะขี้เกียจพิม)
|---------------------------------------------------------------------------------------|
|---------9--10--9------------9--10--9---------9--10--9---------9--10--9----|
|-----9--------------------9--------------------9------------------9-----------------|
|---------------------------------------------0------------------0--------------------|
|--0-------------------0--------------------------------------------------------------|
เสียงกีต้าร์ที่แทรกช่วง"ไปดีเถอะนะคนดีไม่ต้องคิดอะไร"
|--0-------------------------------------|
|---------3-----2------2h3p2--------|
|-----2-----2------2------------2------|
เสียงกีต้าร์ที่แทรกช่วง"แต่ฉันก็คงไม่คิดโทษใครอยู่แล้วอย่าห่วงเลย"
|---------------------------------------------------------------------------|
|--5---5----5----5---3---3---3----3---10----10---10----10-------|
|----4----4----4---4----2---2---2----2----9-----9------9-----9-----|
solo
|------------------------------------------------------------------------------------------|
|----12----10----9-10-10---10-------------10-------10-12---12-10--10--9--|
|-9------9-----9--------------9---6--6/6--9---6---9---------9--------9----------|

|------------------------12----------12-------------------------------------------------|
|---9-9h10-9---10--------10---------10-------7-7---7/9--9---------------------|
|-9---------------9-------------------------------------------------13------------------|

= สไลด์ลง
/ = สไลด์ขึ้น
เอ่อดูวันที่คนโพสคนแรกๆแล้วรู้สึกว่าเรานี่เล่นเพลงเก่าจริงๆ
คนอื่นเค้าเล่นกันมาตั้งนานแล้วพึ่งจะมาแกะเอาตอนนี้ 555
คอร์ดเพลง ปลายทาง

ความคิดเห็นเกี่ยวกับคอร์ดนี้

เวอร์ชั่นทั้งหมดของคอร์ดเพลงนี้

คอร์ดเพลง ปลายทาง

1 | 0
โดย NV Pooh
เมื่อ 17 ปีที่แล้ว

คอร์ดเพลง ปลายทาง

1 | 0
โดย ......
เมื่อ 15 ปีที่แล้ว

คอร์ดเพลง ปลายทาง

1 | 0
โดย Bert
เมื่อ 15 ปีที่แล้ว

คอร์ดเพลง ปลายทาง

0 | 0
โดย kampanart
เมื่อ 13 ปีที่แล้ว

คอร์ดเพลง ปลายทาง

0 | 0
โดย tt
เมื่อ 14 ปีที่แล้ว

คอร์ดเพลง ปลายทาง

0 | 0
โดย เด็กกสิณธรเซนต์ปีเตอร์
เมื่อ 14 ปีที่แล้ว

คอร์ดเพลง ปลายทาง

0 | 0
โดย เข่งปลาทู
เมื่อ 14 ปีที่แล้ว

คอร์ดเพลง ปลายทาง

0 | 0
โดย กรีซ(|จ้าชางมงาย)
เมื่อ 14 ปีที่แล้ว

คอร์ดเพลง ปลายทาง

0 | 0
โดย กรีซ(|จ้าชางมงาย)
เมื่อ 14 ปีที่แล้ว

คอร์ดเพลง ปลายทาง

0 | 0
โดย Differ of Power
เมื่อ 14 ปีที่แล้ว

คอร์ดเพลง ปลายทาง

0 | 0
โดย แกงค์Zaบ้า Sexxxxxxxx
เมื่อ 14 ปีที่แล้ว

คอร์ดเพลง ปลายทาง

0 | 0
โดย บูม
เมื่อ 15 ปีที่แล้ว

คอร์ดเพลง ปลายทาง

0 | 0
โดย tos_guitarsiam
เมื่อ 17 ปีที่แล้ว

คอร์ดเพลง ปลายทาง

0 | 0
โดย NV Pooh
เมื่อ 17 ปีที่แล้ว

คอร์ดเพลง ปลายทาง

0 | 0
โดย Boat
เมื่อ 18 ปีที่แล้ว

คอร์ดเพลง ปลายทาง

0 | 0
โดย กอล์ฟ
เมื่อ 18 ปีที่แล้ว

เนื้อเพลง ปลายทาง - บอดี้สแลม (Bodyslam)

ปลายทางที่ฉันรอเธอ ที่สุดก็จบตรงนี้
ไปดีเถอะนะคนดีไม่ต้องคิดอะไร
ก็เข้าใจว่าวันเวลา มันทำให้คนเปลี่ยนไป
แต่ฉันก็คงไม่คิดโทษใครอยู่แล้ว อย่าห่วงเลย

* (อยาก)ขอบใจที่เคยรักฉัน ที่เคยร่วมทางกันมา
ต้องขอบใจที่ทำให้รู้ว่าไม่ต้องรอ
เจ็บยังไงต้องทนรับไว้ ให้เราจบแค่นี้พอ
จากวันนี้ฉันก็จะขอ ให้โชคดี
(เมื่อไม่เหลือคนที่ให้รอ)

เวลาทุกวินาที ต่อไปคงหมดความหมาย
จะเร็วจะช้ายังไงเธอก็คงไม่มา
เมื่อมันไม่เหลืออะไร เมื่อเธอไม่กลับมาหา
ฉันคงต้องใช้เวลา ที่เหลือ เพื่อลืมเธอ

(*)

คนเราต่อให้รักเพียงใด จะรักแทบเป็นแทบตายก็คงไม่สำคัญ
ปลายทางเราต้องแยกจากกัน ไม่เหมือนอย่างฝัน

(*)

ในเมื่อเธอไม่กลับคืนมา ฉันก็ไม่ควรเฝ้ารอ
จากวันนี้ฉันก็จะขอ ให้โชคดี

Cover เพลงปลายทาง


ยังไม่มี Cover เพลงนี้

[ ช่วยกันแบ่งปันคลิปเพลงที่คุณเล่นเอง ]

ฟังเพลง ปลายทาง

งมงาย - บอดี้สแลม (Bodyslam)
เมื่อ 18 ปีที่แล้ว
ค้นพบคอร์ด 23 เวอร์ชั่น
แสงสุดท้าย - บอดี้สแลม (bodyslam)
เมื่อ 11 ปีที่แล้ว
ค้นพบคอร์ด 3 เวอร์ชั่น
ความรัก - บอดี้สแลม (Bodyslam)
เมื่อ 11 ปีที่แล้ว
ค้นพบคอร์ด 13 เวอร์ชั่น
เปราะบาง - บอดี้สแลม (bodyslam)
เมื่อ 11 ปีที่แล้ว
ค้นพบคอร์ด 5 เวอร์ชั่น
ปลายทาง - บอดี้สแลม (Bodyslam)
เมื่อ 18 ปีที่แล้ว
ค้นพบคอร์ด 27 เวอร์ชั่น
สักวันฉันจะดีพอ - บอดี้สแลม (Bodyslam)
เมื่อ 17 ปีที่แล้ว
ค้นพบคอร์ด 14 เวอร์ชั่น
อกหัก - บอดี้สแลม (Bodyslam)
เมื่อ 14 ปีที่แล้ว
ค้นพบคอร์ด 63 เวอร์ชั่น
ความรักทำให้คนตาบอด - บอดี้สแลม (Bodyslam)
เมื่อ 16 ปีที่แล้ว
ค้นพบคอร์ด 45 เวอร์ชั่น
ขอบฟ้า - บอดี้สแลม (Bodyslam)
เมื่อ 16 ปีที่แล้ว
ค้นพบคอร์ด 29 เวอร์ชั่น
คิดฮอด - บอดี้สแลม (bodyslam)
เมื่อ 11 ปีที่แล้ว
ค้นพบคอร์ด 1 เวอร์ชั่น
ความเชื่อ - บอดี้สแลม (Bodyslam)
เมื่อ 16 ปีที่แล้ว
ค้นพบคอร์ด 23 เวอร์ชั่น
พูดในใจ - บอดี้สแลม (Bodyslam)
เมื่อ 16 ปีที่แล้ว
ค้นพบคอร์ด 13 เวอร์ชั่น
อากาศ - บอดี้สแลม (Bodyslam)
เมื่อ 17 ปีที่แล้ว
ค้นพบคอร์ด 24 เวอร์ชั่น
คนที่ถูกรัก - บอดี้สแลม (BodySlam)
เมื่อ 16 ปีที่แล้ว
ค้นพบคอร์ด 16 เวอร์ชั่น
เจ็บจนวันนี้ - บอดี้สแลม (Bodyslam)
เมื่อ 16 ปีที่แล้ว
ค้นพบคอร์ด 23 เวอร์ชั่น
นาฬิกาตาย - บอดี้สแลม (Bodyslam)
เมื่อ 14 ปีที่แล้ว
ค้นพบคอร์ด 23 เวอร์ชั่น
ยาพิษ - บอดี้สแลม (BodySlam)
เมื่อ 14 ปีที่แล้ว
ค้นพบคอร์ด 28 เวอร์ชั่น
หวั่นไหว - บอดี้สแลม (Bodyslam)
เมื่อ 17 ปีที่แล้ว
ค้นพบคอร์ด 30 เวอร์ชั่น
ห้ามใจ - บอดี้สแลม (Bodyslam)
เมื่อ 16 ปีที่แล้ว
ค้นพบคอร์ด 24 เวอร์ชั่น
Sticker (สติ๊กเกอร์) - บอดี้สแลม (BODYSLAM)
เมื่อ 11 ปีที่แล้ว
ค้นพบคอร์ด 2 เวอร์ชั่น