คอร์ดเพลง ขี้หึง - ซิลลี่ ฟูลส์ (Silly Fools)

Version 2
แกะโดย Dong
เมื่อ 22 พ.ค.2549,19:39น.
ดู 781 ครั้ง
Intro :
1/-----------0-----0----0----0----0----0-----0-------0--------------------
2/-----4-4-----4----4----4----4----4-----------4-------4------------------
3/--------------------------------------------4--------4------4----------------
4/--------------------------------------------------------------------------------

1/-----------0-----0----0----0-----0-----0-------0-----------------------------
2/-----4-4-----4----4----4-----------4-------4-----4----------------------
3/--------------------------------4---------4--------4------4----------------
4/-------------------------------------------------------------------------------

Solo Intro:
3/------9-8----9-8-----8-----9-8----9-8----8----9-8----9-8-----8------9-8-----8--9~-----
4/------------9-------9-----9-------9-------9----9-------9-------9----9----------9--------------
5/----------------------------------------------------------------------------------------------------
6/----------------------------------------------------------------------------------------------------

วนๆอ่า
Solo: หลังจบท่อนเเรก
2/-----12-12-12-------------------------------------------------------------------------------------
3/-------------------13-13-13-13--11-11-11-11---13-13--13/11-----------9-9-9-x-x----
4/------------------------------------------------------------------------------13-13-----------------
5/------------------------------------------------------------------------------------------------------

1/------------------12-11-12-11------11----------------------------------------------------------
2/--------------x--------------------12------12-~~-------------------------------------------------
3/---9-8------------------------------------------------------------------------------------------------
4/---------9---------------------------------------------------------------------------------------------


Solo:
2/-----------------------------------------------12-12-12----------------------------------------
3/---11-11-11-11-11---13-13-13-13----------------13-13--11-11-11-11------------
4/------------------------------------------------------------------------------------------11-9----

1/------------------------------------------------------------------------15^--14--12--14~------
2/-------------------------------------5---7---9--7---12--12^-12--------------------------------
3/----9-8----9-8-----6~------/4-------------------------------------------------------------------
4/----------9------9----------------------------------------------------------------------------------

Improvise Scale Emaj เเล้วจบด้วย
1/---------12-14-12----------------------------------------------------------------------------

Outro:
1/---12-11--12-11--------11---------------------------------------------------------------
2/-----------------------12-------12----------------------------------------------------------------


คอร์ดเพลง ขี้หึง

ความคิดเห็นเกี่ยวกับคอร์ดนี้

เวอร์ชั่นทั้งหมดของคอร์ดเพลงนี้

คอร์ดเพลง ขี้หึง

3 | 0
โดย นู๋เน่
เมื่อ 7 ปีที่แล้ว

คอร์ดเพลง ขี้หึง

1 | 0
โดย ต'ตามตาม เฉยเฉย
เมื่อ 7 ปีที่แล้ว

คอร์ดเพลง ขี้หึง

1 | 0
โดย Ing Ing Ame
เมื่อ ปีที่แล้ว

คอร์ดเพลง ขี้หึง

0 | 0
โดย Rick Sarawut
เมื่อ 5 ปีที่แล้ว

คอร์ดเพลง ขี้หึง

0 | 0
โดย อีส มือเบส
เมื่อ 14 ปีที่แล้ว

คอร์ดเพลง ขี้หึง

0 | 0
โดย pop_Ng
เมื่อ 15 ปีที่แล้ว

คอร์ดเพลง ขี้หึง

0 | 0
โดย pop_Ng
เมื่อ 15 ปีที่แล้ว

คอร์ดเพลง ขี้หึง

0 | 0
โดย Dong
เมื่อ 16 ปีที่แล้ว

คอร์ดเพลง ขี้หึง

0 | 0
โดย Dong
เมื่อ 16 ปีที่แล้ว

คอร์ดเพลง ขี้หึง

0 | 0
โดย Dong
เมื่อ 16 ปีที่แล้ว

เนื้อเพลง ขี้หึง - ซิลลี่ ฟูลส์ (Silly Fools)

ยิ้มให้กับฉันหน่อย แค่หึงเล็กน้อยแค่คอยรัก
ได้โปรดอย่าโกรธฉัน ขนาดนั้น อีกนานคงขาดใจ

และไม่ใช่ไม่ไว้ใจ ใจฉันร้อน หากใครมองนัก
ก็เธอดันน่ารัก ขนาดนั้น ให้มองอยู่ได้ไง

ช่วยเอียงมาหาหน่อย ฉันเฝ้าคอย ที่จะบอกรัก
ได้โปรดอย่าโกรธฉัน ที่ทำไปนั้น จะไม่ทำอีกต่อไป

บางทีฉันก็ยั้งไม่อยู่ บางทีฉันก็รู้ แต่ทนไม่ไหว
บางทีฉันใจร้อนเกินไป โปรดจงเข้าใจ ที่เป็นไปนะ

* (ที่เป็นไปนะ) เป็นไปด้วยรัก แต่อาจจะขี้หึงเกินไป
แต่ใจทั้งใจมีแต่เธอคนเดียว รักเธอคนเดียว ไม่ยอมให้ใครมาเปลี่ยนไป

(ซ้ำ *)

อยากให้เธอได้รู้ เฝ้าดูแล้วเข้าใจก่อน
หากใครทำใจฉันสั่นคลอน เธอจะรู้สึกหึงและห่วงไหม

(ซ้ำ * , * , * , *)

Cover เพลงขี้หึง


ยังไม่มี Cover เพลงนี้

[ ช่วยกันแบ่งปันคลิปเพลงที่คุณเล่นเอง ]

ฟังเพลง ขี้หึง

วัดใจ - ซิลลี่ ฟูลส์ (Silly Fools)
เมื่อ 18 ปีที่แล้ว
ค้นพบคอร์ด 48 เวอร์ชั่น
ขี้หึง - ซิลลี่ ฟูลส์ (Silly Fools)
เมื่อ 16 ปีที่แล้ว
ค้นพบคอร์ด 11 เวอร์ชั่น
ผิดที่ไว้ใจ - ซิลลี่ ฟูลส์ (Silly Fools)
เมื่อ 15 ปีที่แล้ว
ค้นพบคอร์ด 19 เวอร์ชั่น
โง่ - ซิลลี่ ฟูลส์ (Silly Fools)
เมื่อ 14 ปีที่แล้ว
ค้นพบคอร์ด 13 เวอร์ชั่น
น้ำลาย - ซิลลี่ ฟูลส์ (Silly Fools)
เมื่อ 18 ปีที่แล้ว
ค้นพบคอร์ด 51 เวอร์ชั่น
จิ๊จ๊ะ - ซิลลี่ ฟูลส์ (Silly Fools)
เมื่อ 15 ปีที่แล้ว
ค้นพบคอร์ด 13 เวอร์ชั่น
เมื่อรักฉันเกิด - ซิลลี่ ฟูลส์ (Silly Fools)
เมื่อ 18 ปีที่แล้ว
ค้นพบคอร์ด 12 เวอร์ชั่น
Intro,Solo คิดถึง - ซิลลี่ ฟูลส์ (Silly Fools)
เมื่อ 17 ปีที่แล้ว
ค้นพบคอร์ด 17 เวอร์ชั่น
เพียงรัก (ท่อนเร็ว) - ซิลลี่ ฟูลส์ (Silly Fools)
เมื่อ 18 ปีที่แล้ว
ค้นพบคอร์ด 16 เวอร์ชั่น
เพลงนี้เกี่ยวกับความรัก - ซิลลี่ ฟูลส์ (Silly Fools)
เมื่อ 15 ปีที่แล้ว
ค้นพบคอร์ด 12 เวอร์ชั่น
เบื่อ - ซิลลี่ ฟูลส์ (Silly Fools)
เมื่อ 18 ปีที่แล้ว
ค้นพบคอร์ด 7 เวอร์ชั่น
Hey - ซิลลี่ ฟูลส์ (Silly Fools)
เมื่อ 17 ปีที่แล้ว
ค้นพบคอร์ด 9 เวอร์ชั่น
ไม่ - ซิลลี่ ฟูลส์ (Silly Fools)
เมื่อ 16 ปีที่แล้ว
ค้นพบคอร์ด 9 เวอร์ชั่น
คนที่ฆ่าฉัน - ซิลลี่ ฟูลส์ (Silly Fools)
เมื่อ 21 ปีที่แล้ว
ค้นพบคอร์ด 10 เวอร์ชั่น
intro น้ำลาย - ซิลลี่ ฟูลส์ (Silly Fools)
เมื่อ 18 ปีที่แล้ว
ค้นพบคอร์ด 8 เวอร์ชั่น
บ้าบอ - ซิลลี่ ฟูลส์ (Silly Fools)
เมื่อ 16 ปีที่แล้ว
ค้นพบคอร์ด 17 เวอร์ชั่น
Stay Away - ซิลลี่ ฟูลส์ (Silly
เมื่อ 15 ปีที่แล้ว
ค้นพบคอร์ด 8 เวอร์ชั่น
แกล้ง - ซิลลี่ ฟูลส์ (Silly Fools)
เมื่อ 15 ปีที่แล้ว
ค้นพบคอร์ด 12 เวอร์ชั่น
อย่าบอกว่ารัก - ซิลลี่ ฟูลส์ (Silly Fools)
เมื่อ 15 ปีที่แล้ว
ค้นพบคอร์ด 8 เวอร์ชั่น
เหนื่อยแล้ว... - ซิลลี่ ฟูลส์
เมื่อ 14 ปีที่แล้ว
ค้นพบคอร์ด 3 เวอร์ชั่น