คอร์ดเพลง กัญชา - คาราบาว

Version 4
แกะโดย OTTO
เมื่อ 22 เม.ย.2550,22:12น.
ดู 1038 ครั้ง


Intro

1--------------0----------------------0-------------------------0-------------------------0-----------
2--------6----------6----------6----------6------------6------------6------------6------------6----
3-----7-----7---7-----7----7----7----7----7------7-----7-----7-----7-----7-----7-----7-----7-
4--7----------------------7-----------------------8-------------------------8-------------------------
5--------------------------------------------------------------------------------------------------------
6--------------------------------------------------------------------------------------------------------

1--------------0----------------------0-------------------------0-------------------------0-----------
2--------6----------6----------6----------6------------6------------6------------6------------6----
3-----7-----7---7-----7----7----7----7----7------7-----7-----7-----7-----7-----7-----7-----7-
4--5----------------------5-----------------------7-------------------------7-------------------------
5--------------------------------------------------------------------------------------------------------
6--------------------------------------------------------------------------------------------------------

1--------------0----------------------0-------------------------0-------------------------0-----------
2--------6----------6----------6----------6------------6------------6------------6------------6----
3-----7-----7---7-----7----7----7----7----7------7-----7-----7-----7-----7-----7-----7-----7-
4--8----------------------8-----------------------5-------------------------5-------------------------
5--------------------------------------------------------------------------------------------------------
6--------------------------------------------------------------------------------------------------------

1--------------0----------------------0----------------------------------------------------------------
2--------6----------6----------6----------6-----------------------------------------------------------
3-----7-----7---7-----7----7----7----7--------------------------------------------------------------
4--7----------------------7-----------------------------------------------------------------------------
5--------------------------------------------------------------------------------------------------------
6--------------------------------------------------------------------------------------------------------
ผมว่าของผมเหมือนกว่านะ แก้จากของเดิมนิดหน่อย
ไป ต่อเอาเองนะ
คอร์ดเพลง กัญชา

ความคิดเห็นเกี่ยวกับคอร์ดนี้

เนื้อเพลง กัญชา - คาราบาว

ค่ำคืนนี้ยังมีดวงดาวเจิดจ้า
คราบท้องฟ้ายังดูสดใส
สุดส่วนของขอบฟ้ากว้างไกล
ไม่มีวันใดมืดมิดสนิทนาน...........................
ฮูว์........

คราบรอยยิ้มยังแต้มเติมตามใบหน้า
กลิ่นกัญชาโชยมาแต่ไกล
ชั่วชีวิตคิดสั้นทำไม
เสพสิ่งจูงใจ ให้ร้ายแก่ตัวเราเอง
ฮะ.................

* จดจำไว้ในความทรงจำ
ความบอบช้ำของตัวเราเอง
ล่วงถลำกล้ำกลืนฤทธิ์ยา
ปรารถนา......สรรค์สร้างสิ่งใด

** เจ็บจำไหมในความเลื่อนลอย
จิตเสื่อมถอยน้อยคนเห็นใจ
หมดเรี่ยวแรงท้อใจท้อกาย
ท้อถอยไป.....ถอยหลังเข้าคลอง

จดจำไว้ในความทรงจำ
ความบอบช้ำของตัวเราเอง
ล่วงถลำกล้ำกลืนฤทธิ์ยา
ปรารถนา......สรรค์สร้างสิ่งใด

เจ็บจำไหมในความเลื่อนลอย
จิตเสื่อมถอยน้อยคนเห็นใจ
หมดเรี่ยวแรงท้อใจท้อกาย
ท้อถอยไป.....ถอยหลังเข้าคลอง

คราบรอยยิ้มยังแต้มเติมตามใบหน้า
สูบกัญชาหลอกหลอนจิตใจ
ชั่วชีวิตคิดสั้นทำไม
เส้นทางสุดท้าย นอนตายใต้ต้นกัญชา

Cover เพลงกัญชา


ยังไม่มี Cover เพลงนี้

[ ช่วยกันแบ่งปันคลิปเพลงที่คุณเล่นเอง ]

ฟังเพลง กัญชา

ทะเลใจ - คาราบาว
เมื่อ 14 ปีที่แล้ว
ค้นพบคอร์ด 11 เวอร์ชั่น
เดือนเพ็ญ - คาราบาว
เมื่อ 17 ปีที่แล้ว
ค้นพบคอร์ด 15 เวอร์ชั่น
คนเก็บฟืน - คาราบาว
เมื่อ 17 ปีที่แล้ว
ค้นพบคอร์ด 10 เวอร์ชั่น
สัญญาหน้าฝน - คาราบาว
เมื่อ 13 ปีที่แล้ว
ค้นพบคอร์ด 6 เวอร์ชั่น
รั้วทะเล - คาราบาว
เมื่อ 14 ปีที่แล้ว
ค้นพบคอร์ด 2 เวอร์ชั่น
วณิพก - คาราบาว
เมื่อ 18 ปีที่แล้ว
ค้นพบคอร์ด 18 เวอร์ชั่น
รักต้องสู้ - คาราบาว
เมื่อ 13 ปีที่แล้ว
ค้นพบคอร์ด 17 เวอร์ชั่น
ลุงขี้เมา - คาราบาว
เมื่อ 18 ปีที่แล้ว
ค้นพบคอร์ด 12 เวอร์ชั่น
กัญชา - คาราบาว
เมื่อ 18 ปีที่แล้ว
ค้นพบคอร์ด 9 เวอร์ชั่น
นางงามตู้กระจก - คาราบาว
เมื่อ 17 ปีที่แล้ว
ค้นพบคอร์ด 6 เวอร์ชั่น
หลงวัฒน์ - คาราบาว
เมื่อ 13 ปีที่แล้ว
ค้นพบคอร์ด 8 เวอร์ชั่น
ผู้ปิดทองหลังพระ คอร์ด - แอ๊ด คาราบาว
เมื่อ 9 ปีที่แล้ว
ค้นพบคอร์ด 2 เวอร์ชั่น
คนล่าฝัน - คาราบาว
เมื่อ 12 ปีที่แล้ว
ค้นพบคอร์ด 3 เวอร์ชั่น
เจ้าตาก - คาราบาว
เมื่อ 14 ปีที่แล้ว
ค้นพบคอร์ด 9 เวอร์ชั่น
เพื่อชีวิตติดล้อ - คาราบาว
เมื่อ 12 ปีที่แล้ว
ค้นพบคอร์ด 2 เวอร์ชั่น
แร้งคอย - คาราบาว
เมื่อ 15 ปีที่แล้ว
ค้นพบคอร์ด 8 เวอร์ชั่น
มนต์เพลงคาราบาว - คาราบาว
เมื่อ 18 ปีที่แล้ว
ค้นพบคอร์ด 2 เวอร์ชั่น
ยายสำอาง - คาราบาว
เมื่อ 14 ปีที่แล้ว
ค้นพบคอร์ด 3 เวอร์ชั่น
คนหนังเหนียว - คาราบาว
เมื่อ 13 ปีที่แล้ว
ค้นพบคอร์ด 7 เวอร์ชั่น
บัวลอย - คาราบาว
เมื่อ 14 ปีที่แล้ว
ค้นพบคอร์ด 10 เวอร์ชั่น