คอร์ดเพลง ยอม - หิน เหล็ก ไฟ

Version 2
แกะโดย ออฟ
เมื่อ 29 มี.ค.2549,23:05น.
ดู 3520 ครั้ง
intro
Gm
6)-------------------------------------------
5)-------------------------------------------
4)-l5l---5--------5--------5--------5-----
3)-l7l-------l7l------l7l-------l7l---------
2)-l8l-------l8l------l8l-------l8l---------
1)-l6l-------l6l------l6l-------l5l---------
2รอบ

6)---------------------------------------6----------------------------------------6-3
5)-------------------------------6-5-3-----------------------------------6-5-3----
4)--------------------------5-3---------------------------------5--5-3-------------
3)------------------5-3-2-------------------------5---5-3-2---2------------------
2)----------6-4-3-------------------------6-4-3---3------------------------------
1)--6-5-3----------------------------------------------------------------------------


6)-----------------------------------------------------------------------------
5)--3s5----------------------------------------------------------------------
4)--------3-5---3--3s5-----------------------------------------------------
3)-------------3---------------------------------------------------------------
2)-------------------------5h7-------5s3-3--5h3-5s7---7-5s7---7---
1)-------------------------------6h8-----------------------6---------6------

6)------------------------------------------------------------
5)------------------------------------------------------------
4)------0s3-5-------------------------------------7^8-7---3-3s5-3s5-----------
3)---------------2-3-5-5s7--5s3-5s7-3s5--------------------------------------
2)------------------------------------------------------------
1)------------------------------------------------------------

Hook
6)-------------------------------------------------
5)-------------------------------------5------------
4)---5-5---5---------------------------3-5------5-3-------
3)--------3---2-3---3-3---3---3----------3-2----------------
2)-------------------------4---6----------------------
1)--------------------------------------------------

6)-----------------------------------------------
5)-----------------------------------------------
4)-----------------------------------------------
3)---3-5-7-5-3-2-0-3-5-7------------------
2)------------------------------------------------
1)------------------------------------------------

solo
6)-----------------------------------------------
5)-----------------------------------------------
4)-----------------------------------------------
3)-----------------------------------------------
2)--------------------------20-20-20--------------------
1)---20^22(2)--18-20--------------20-18---22^24--18-20-20^22-18-20------------------
แล้วสวีปจากเฟลต22ขึ้นไปถึงสาย6เฟลต18

l l กรีดสาย
s ไสลด์
h ตบสาย
^ ดันสาย

แกะได้แค่นี้อ่ะ ถ้าผิดช่วยแก้ด้วยนะ
ขอบคุณครับ
คอร์ดเพลง ยอม

ความคิดเห็นเกี่ยวกับคอร์ดนี้

เวอร์ชั่นทั้งหมดของคอร์ดเพลงนี้

เนื้อเพลง ยอม - หิน เหล็ก ไฟ

ยอม the sun
Intro :


เพราะตัวฉันเอง ไม่อาจทำ คามใจเธอทุกอย่าง

เหมือนคมมีดกรีดกลาง ใจเป็นรอยแผล ให้เราเจ็บช้ำ

เพราะตัวฉันเอง ให้เหตุการณ์ เลวร้ายลงทุกที

ฉันทำได้เท่านี้ แต่ไม่ดีพอ ที่เธอต้องการ

* ไม่อยากให้เธอร้อง ไม่อยากให้เธอเจ็บ

ไม่อยากให้เธอทุกข์ใจมากไปกว่านี้

** ฝืนเกินไปเสียเวลาเปล่า

ช้าหรือเร็วก็ปวดร้าว

ฝืนเกินไปเสียเวลาเปล่า

เจ็บเพียงครั้งเดียว ทิ้งฉันไปดีกว่า

ส่วนตัวฉันยอม ทรมาน

Intru :

เพราะตัวฉันเอง ไม่อาจเป็น ดั่งใจเธอต้องการ

ชั่วและดีประสาน นานจนเป็นฉัน เกินจะเปลี่ยนแปลง

(*,**)

Solo :

(**)


ส่วนตัวฉันยอม ทรมาน

ส่วนตัวฉันยอมทรมาน

ส่วนตัวฉันยอม

Cover เพลงยอม


ยังไม่มี Cover เพลงนี้

[ ช่วยกันแบ่งปันคลิปเพลงที่คุณเล่นเอง ]

ฟังเพลง ยอม

ศรัทธา - หิน เหล็ก ไฟ
เมื่อ 13 ปีที่แล้ว
ค้นพบคอร์ด 17 เวอร์ชั่น
หลงกล - หิน เหล็ก ไฟ
เมื่อ 14 ปีที่แล้ว
ค้นพบคอร์ด 10 เวอร์ชั่น
ง่ายเกินไป - หิน เหล็ก ไฟ
เมื่อ 13 ปีที่แล้ว
ค้นพบคอร์ด 13 เวอร์ชั่น
ยอม - หิน เหล็ก ไฟ
เมื่อ 12 ปีที่แล้ว
ค้นพบคอร์ด 18 เวอร์ชั่น
นางแมว - หิน เหล็ก ไฟ
เมื่อ 11 ปีที่แล้ว
ค้นพบคอร์ด 1 เวอร์ชั่น
สู้ - หิน เหล็ก ไฟ
เมื่อ 11 ปีที่แล้ว
ค้นพบคอร์ด 2 เวอร์ชั่น
ลมหายใจของกันและกัน - ลูกหิน
เมื่อ 14 ปีที่แล้ว
ยังไม่มีคอร์ด
เพื่อเธอ - หินเหล็กไฟ
เมื่อ 14 ปีที่แล้ว
ค้นพบคอร์ด 6 เวอร์ชั่น
เพื่อนกัน - หิน เหล็ก ไฟ
เมื่อ 10 ปีที่แล้ว
ค้นพบคอร์ด 1 เวอร์ชั่น
คงไม่ต้องบอก - หินกลิ้ง
เมื่อ 10 ปีที่แล้ว
ค้นพบคอร์ด 1 เวอร์ชั่น
หวาดระแวง - หิน เหล็ก ไฟ
เมื่อ 5 ปีที่แล้ว
ค้นพบคอร์ด 1 เวอร์ชั่น
สัญญา - หิน เหล็ก ไฟ
เมื่อ 13 ปีที่แล้ว
ค้นพบคอร์ด 2 เวอร์ชั่น
อภัย - หิน เหล็ก ไฟ
เมื่อ 12 ปีที่แล้ว
ค้นพบคอร์ด 3 เวอร์ชั่น
หมอนสองใบกับใจเหงาๆ - ลูกหิน
เมื่อ 13 ปีที่แล้ว
ค้นพบคอร์ด 2 เวอร์ชั่น
คิดไปเอง - หิน เหล็ก ไฟ
เมื่อ 5 ปีที่แล้ว
ค้นพบคอร์ด 1 เวอร์ชั่น
ทำดีที่สุดแล้ว - โป่ง หิน เหล็ก ไฟ
เมื่อ 3 ปีที่แล้ว
ค้นพบคอร์ด 5 เวอร์ชั่น
พลังรัก - หิน เหล็ก ไฟ
เมื่อ 5 ปีที่แล้ว
ค้นพบคอร์ด 1 เวอร์ชั่น
ไขว้เขว - หิน เหล็ก ไฟ
เมื่อ 5 ปีที่แล้ว
ค้นพบคอร์ด 1 เวอร์ชั่น
เจ็บบ้างก็ดี - หิน เหล็ก ไฟ
เมื่อ 5 ปีที่แล้ว
ค้นพบคอร์ด 1 เวอร์ชั่น
พอกันที - หิน เหล็ก ไฟ
เมื่อ 5 ปีที่แล้ว
ค้นพบคอร์ด 1 เวอร์ชั่น