คอร์ดเพลง กอด - แคลช (Clash)

Version 7
แกะโดย Jo
เมื่อ 6 มิ.ย.2550,00:26น.
ดู 732 ครั้ง



Solo เพลงกอด
6|-------------------------------------------------------------------------------------------------------------
5|-------------------------------------------------------------------------------------------------------------
4|--9--11^~~~--9----9------7------------------9------------------------------------------------------
3|-------------------------------------9*/11---9------9----11--------------------------------------------
2|-------------------------------7----------------------------------(11^)--------------------------10/12
1|----------------------------------------------------------------------------10-10p9--9h10---------------------
ต่อ
6|-------------------------------------------------------------------------------------------------------------
5|-------------------------------------------------------------------------------------------------------------
4|---------------------------------7/9--------------5------7------5-----7-----------5-----7-----9-------
3|-----------11-------10/11------------------4------6-----4------6------------4-----6-----8----------
2|--12-10-----10-------------------------3------5------3------5-----3/1--3-----5------7-------------1|-------------------------------------------------------------------------------------------------------------
ต่อ
6|-----------------------------------------------------------------
5|-----------------------------------------------------------------
4|--------10------12---11--------------------------------------
3|-----9------11--------------------------------------------------
2|--8-----10----------------------14^~~~~~12~~~~~-
1|------------------------------------------------------------------


ตรง 9*ให้ดีค้างไว้นิดนึงก่อนที่จะสไลท์ไป11
และตรง (11^)ให้ดันสายให้ได้1เสียงเลยคับ

ถูก 100000000000%คับ
คอร์ดเพลง กอด

ความคิดเห็นเกี่ยวกับคอร์ดนี้

เวอร์ชั่นทั้งหมดของคอร์ดเพลงนี้

เนื้อเพลง กอด - แคลช (Clash)


ฮู ... นา ... นา ... นา ... ฮึมม์ ...


ฉันเคยบอก รู้สึกจะเมื่อวันก่อน ซึ่งเธอก็รู้ ว่าความผูกพัน ทำให้ฝันละเมอ

ฉันจำได้ เธออ่อนและไหว จนฉันหวั่นไหว และสั่นสะท้านหัวใจ


* อยากบอกเธอ ให้ได้ยินเหลือเกิน แต่ไม่รู้เธอได้ยินรึเปล่า

อยากบอกเธอ ให้รู้เหลือเกิน ว่าเธอคือลมหายใจของฉัน


โอบกอดหัวใจ ของฉัน เอาไว้เนิ่นนาน แค่เพียงฉันคิดว่าเธอจะจากไป ใจมันหวิวทุกที

เอ่ยคำสัญญา บอกมาว่าไม่มีวัน ที่จะทำให้ฉันต้องหวั่นไหว แค่นี้ก็เป็นสุข


** กอดฉันให้นานเข้าไว้ เพราะเธอช่างแสนมีความหมายกับฉันมากมายอย่างนี้

ความรักที่ฉันให้เธอ ไม่เคยให้มากเท่าใคร ที่กระซิบบอกหัวใจเธอ

เธอคงได้ยิน ว่ารักเธอมากกว่าสิ่งใด

Solo :

[ ซ้ำ * ]


โอบกอดหัวใจ ของฉันเอาไว้เนิ่นนาน แค่เพียงฉันคิดว่าเธอจะจากไป ใจมันหวิวทุกที

[ ซ้ำ ** ]

Cover เพลงกอด


ยังไม่มี Cover เพลงนี้

[ ช่วยกันแบ่งปันคลิปเพลงที่คุณเล่นเอง ]

ฟังเพลง กอด

เพื่อนไม่ทิ้งกัน - แคลช (Clash)
เมื่อ 17 ปีที่แล้ว
ค้นพบคอร์ด 10 เวอร์ชั่น
ฝากความยินดี - แคลช (Clash)
เมื่อ 11 ปีที่แล้ว
ค้นพบคอร์ด 3 เวอร์ชั่น
นางฟ้าคนเดิม - แคลช (Clash)
เมื่อ 15 ปีที่แล้ว
ค้นพบคอร์ด 41 เวอร์ชั่น
วังวน - แคลช (Clash)
เมื่อ 15 ปีที่แล้ว
ค้นพบคอร์ด 19 เวอร์ชั่น
เพลงสุดท้าย - แคลช (clash)
เมื่อ 11 ปีที่แล้ว
ค้นพบคอร์ด 1 เวอร์ชั่น
ไฟรัก - แคลช (Clash)
เมื่อ 16 ปีที่แล้ว
ค้นพบคอร์ด 32 เวอร์ชั่น
รอ - แคลช (Clash)
เมื่อ 15 ปีที่แล้ว
ค้นพบคอร์ด 29 เวอร์ชั่น
ขอเจ็บแทน - แคลช (Clash)
เมื่อ 15 ปีที่แล้ว
ค้นพบคอร์ด 33 เวอร์ชั่น
เธอจะอยู่กับฉันตลอดไป - แคลช (Clash)
เมื่อ 18 ปีที่แล้ว
ค้นพบคอร์ด 24 เวอร์ชั่น
ซบที่อกฉัน - แคลช (Clash)
เมื่อ 16 ปีที่แล้ว
ค้นพบคอร์ด 40 เวอร์ชั่น
กอด - แคลช (Clash)
เมื่อ 18 ปีที่แล้ว
ค้นพบคอร์ด 12 เวอร์ชั่น
เกินคำว่ารัก - แคลช clash
เมื่อ 14 ปีที่แล้ว
ค้นพบคอร์ด 17 เวอร์ชั่น
รับได้ทุกอย่าง - แคลช (Clash)
เมื่อ 18 ปีที่แล้ว
ค้นพบคอร์ด 15 เวอร์ชั่น
อ้างว้าง - แคลช (Clash)
เมื่อ 16 ปีที่แล้ว
ค้นพบคอร์ด 4 เวอร์ชั่น
ปฏิเสธไม่ได้ว่ารักเธอ - แคล (Kal) Feat. แบงค์ แคลช (Clash)
เมื่อ 12 ปีที่แล้ว
ค้นพบคอร์ด 1 เวอร์ชั่น
ขอเช็ดน้ำตา - แคลช (Clash)
เมื่อ 18 ปีที่แล้ว
ค้นพบคอร์ด 13 เวอร์ชั่น
ทิ้งรักลงแม่น้ำ - แคลช ((Clash) Pack4)
เมื่อ 16 ปีที่แล้ว
ค้นพบคอร์ด 8 เวอร์ชั่น
เพื่อเธอตลอดไป - แบงค์ แคลช
เมื่อ 17 ปีที่แล้ว
ค้นพบคอร์ด 15 เวอร์ชั่น
ผีเสื้อ - แคลช (Clash)
เมื่อ 16 ปีที่แล้ว
ค้นพบคอร์ด 31 เวอร์ชั่น
โรคประจำตัว - แคลช (Clash)
เมื่อ 17 ปีที่แล้ว
ค้นพบคอร์ด 22 เวอร์ชั่น