คอร์ดเพลง หนุ่มบาว-สาวปาน - คาราบาว - ปาน ธนพร

Version 1
แกะโดย เสือ
เมื่อ 2 ธ.ค.2550,12:36น.
ดู 3825 ครั้ง



หนุ่มบาว-สาวปาน
ศิลปิน : คาราบาว
Intro
1-----------------------------------------------------------------full-----------------------------------------
2-------------------full--------------------------17---------17^---------17----17--14----14----15---
3----11--14---16^----16---16----16--14--------------------------------------------------------------
4--------------------------------------------------------------------------------------------------------------
5--------------------------------------------------------------------------------------------------------------
6--------------------------------------------------------------------------------------------------------------

---------------------------------------------------------------------------------------------------------------
--17---------14--15--15--------15--14-----------------------------------------------------------------
---------16-----------------------------------14---16------------------------------------------------------
------------------------------------------------------------14--16---16<11-----11>14-------14------
---------------------------------------------------------------------------------------------------------------
---------------------------------------------------------------------------------------------------------------

Solo1
-----------------------------------------------------------------------------------------full------------------
----------------------full--14--15---full-----------------------------17----------17^------17----------
---11----14------16^-------------16^----16----16-----16-14----------------------------------------
---------------------------------------------------------------------------------------------------------------
---------------------------------------------------------------------------------------------------------------
---------------------------------------------------------------------------------------------------------------

--------------------------------------------------------------------------------------------------------------
-------14-15--------17----------------14--15----------15--------15-14-----------------------------
-----x----------------------16-------16----------------------------------------16--14------------------
---x-----------------------------------------------------------------------------------------14-------------
--------------------------------------------------------------------------------------------------------------
--------------------------------------------------------------------------------------------------------------

-------------------------------------------------------------------------------------------------------------
-------------------------------------------------------------------------------------------------------------
-------------------------------------------------------------------------------------------------------------
---16--16<11--------------11>14--------------14----------------------------------------------------
-------------------------------------------------------------------------------------------------------------
-------------------------------------------------------------------------------------------------------------

Solo2 full
-----------------------------------------full---------------------12--------------12^--------------------
------------------10------12-------12^-----12-----12--10-------------------------10---------------
---------11------------------------------------------------------------------------------------------------
----11------11------11------11------------------------------------------------------------------------
------------------------------------------------------------------------------------------------------------
-------------------------------------------------------------------------------------------------------------

--------------------------------------------------------------------------------------17------------------
---10-----12------------------------------------------------17---17---17----------------------------
--------------------9-----11--12---13---------14--------14---14---14-----------------------------
------------------------------------------------------------------------------------------------------------
------------------------------------------------------------------------------------------------------------
-----------------------------------------------------------------------------------------------------------

คอร์ดเพลง หนุ่มบาว-สาวปาน

ความคิดเห็นเกี่ยวกับคอร์ดนี้

เนื้อเพลง หนุ่มบาว-สาวปาน - คาราบาว - ปาน ธนพร









lt;gt;



Solo1
full
fullfull17^
16^16^






x
x






lt;gt;



Solo2 full
full12^
12^











Cover เพลงหนุ่มบาว-สาวปาน


ยังไม่มี Cover เพลงนี้

[ ช่วยกันแบ่งปันคลิปเพลงที่คุณเล่นเอง ]

ฟังเพลง หนุ่มบาว-สาวปาน

ทะเลใจ - คาราบาว
เมื่อ 13 ปีที่แล้ว
ค้นพบคอร์ด 11 เวอร์ชั่น
เดือนเพ็ญ - คาราบาว
เมื่อ 15 ปีที่แล้ว
ค้นพบคอร์ด 15 เวอร์ชั่น
คนเก็บฟืน - คาราบาว
เมื่อ 15 ปีที่แล้ว
ค้นพบคอร์ด 10 เวอร์ชั่น
สัญญาหน้าฝน - คาราบาว
เมื่อ 11 ปีที่แล้ว
ค้นพบคอร์ด 6 เวอร์ชั่น
รั้วทะเล - คาราบาว
เมื่อ 12 ปีที่แล้ว
ค้นพบคอร์ด 2 เวอร์ชั่น
วณิพก - คาราบาว
เมื่อ 16 ปีที่แล้ว
ค้นพบคอร์ด 18 เวอร์ชั่น
รักต้องสู้ - คาราบาว
เมื่อ 11 ปีที่แล้ว
ค้นพบคอร์ด 17 เวอร์ชั่น
ลุงขี้เมา - คาราบาว
เมื่อ 16 ปีที่แล้ว
ค้นพบคอร์ด 12 เวอร์ชั่น
กัญชา - คาราบาว
เมื่อ 16 ปีที่แล้ว
ค้นพบคอร์ด 9 เวอร์ชั่น
นางงามตู้กระจก - คาราบาว
เมื่อ 15 ปีที่แล้ว
ค้นพบคอร์ด 6 เวอร์ชั่น
หลงวัฒน์ - คาราบาว
เมื่อ 12 ปีที่แล้ว
ค้นพบคอร์ด 8 เวอร์ชั่น
ผู้ปิดทองหลังพระ คอร์ด - แอ๊ด คาราบาว
เมื่อ 8 ปีที่แล้ว
ค้นพบคอร์ด 2 เวอร์ชั่น
คนล่าฝัน - คาราบาว
เมื่อ 10 ปีที่แล้ว
ค้นพบคอร์ด 3 เวอร์ชั่น
เจ้าตาก - คาราบาว
เมื่อ 12 ปีที่แล้ว
ค้นพบคอร์ด 9 เวอร์ชั่น
เพื่อชีวิตติดล้อ - คาราบาว
เมื่อ 10 ปีที่แล้ว
ค้นพบคอร์ด 2 เวอร์ชั่น
แร้งคอย - คาราบาว
เมื่อ 13 ปีที่แล้ว
ค้นพบคอร์ด 8 เวอร์ชั่น
มนต์เพลงคาราบาว - คาราบาว
เมื่อ 16 ปีที่แล้ว
ค้นพบคอร์ด 2 เวอร์ชั่น
ยายสำอาง - คาราบาว
เมื่อ 12 ปีที่แล้ว
ค้นพบคอร์ด 3 เวอร์ชั่น
คนหนังเหนียว - คาราบาว
เมื่อ 12 ปีที่แล้ว
ค้นพบคอร์ด 7 เวอร์ชั่น
บัวลอย - คาราบาว
เมื่อ 12 ปีที่แล้ว
ค้นพบคอร์ด 10 เวอร์ชั่น