คอร์ดเพลง เล่นของสูง - บิ๊กแอส (Big Ass)

Version 4
แกะโดย JoE Arch. 1 KMITL
เมื่อ 1 ส.ค.2547,15:20น.
ดู 202130 ครั้ง
Artist : Big Ass
Title : เล่นของสูง
Album : Seven

Tabber : JoE
e-mail : small__punkhotmail.com

tuing : standard
pm : palm mute
h : hammer on
p : pull off
~ : let ring
( ) : hidden note

its not 100% correct
but, this is how i play this song

note* : copy this and use Courier New Font

INTRO

guitar 1 (distortion)
e|---------------------------------------------------------------------------------------------------------------------------------------|
B|---------------------------------------------------------------------------------------------------------------------------------------|
G|---------------------------------------------------------------------------------------------------------------------------------------|
D|--4-4-4-4-4-4-4-4-4-4-4-4-4-4-4-4------------------------------------------------------------------------------------------------------|
A|--2-2-2-2-2-2-2-2-2-2-2-2-2-2-2-2--2-2-2-2-2-2-2-2-2-2-2-2-2-2-2-2--6-6-6-6-6-6-6-6--4-4-4-4-4-4-4-4--2-2-2-2-2-2-2-2--22----22----22--|
E|-----------------------------------0-0-0-0-0-0-0-0-0-0-0-0-0-0-0-0--4-4-4-4-4-4-4-4--2-2-2-2-2-2-2-2--0-0-0-0-0-0-0-0--00----00----00--|
pm . . . . . . . . . . . . . . . . . . . . . . . . . . . . . . . . . . . . . . . . . . . . . . . . . . . . . . . . .. .. ..

guitar 2 (clean)
e|--2-~------------------------------0-~------------------------------4-~--------------2-~--------------0-~------------------------------|
B|--2-~------------------------------0-~------------------------------4-~--------------2-~--------------0-~------------------------------|
G|--4-~------------------------------1-~------------------------------4-~--------------3-~--------------1-~------------------------------|
D|--4-~------------------------------2-~------------------------------6-~--------------4-~--------------2-~------------------------------|
A|--2-~------------------------------2-~------------------------------6-~--------------4-~--------------2-~------------------------------|
E|-----------------------------------0-~------------------------------4-~--------------2-~--------------0-~------------------------------|

guitar 1 (continue)
e|-----------------------------------|
B|-----------------------------------|
G|-----------------------------------|
D|--444444-4--------444444-4----444--|
A|--222222-2--------222222-2----222--|
E|-----------------------------------|
pm ...... ...... .

guitar 2
e|--2--------------------------------|
B|--2--------------------------------|
G|--4----------(strumming)-----------|
D|--4--------------------------------|
A|--2--------------------------------|
E|-----------------------------------|

VERSE 1

guitar 1 (distortion)
e|---------------------------------------------------------------------------------------------------------------------------------------|
B|---------------------------------------------------------------------------------------------------------------------------------------|
G|---------------------------------------------------------------------------------------------------------------------------------------|
D|--444444-4--4-4-4-444444-4--4-4-4------------------------------------------------------------------------------------------------------|
A|--222222-2--2-2-2-222222-2--2-2-2--222222-2--2-2-2-222222-2--2-2-2--666666-6--6-6-6--444444-4--4-4-4--222222-2--2-2-2-222222-2--2-2-2--|
E|-----------------------------------000000-0--0-0-0-000000-0--0-0-0--444444-4--4-4-4--222222-2--2-2-2--000000-0--0-0-0-000000-0--0-0-0--|
pm ...... . . ...... . . ...... . . ...... . . ...... . . ...... . . ...... . . ...... . .

guitar 2 (clean)
e|--2--------------------------------0--------------------------------4----------------2----------------0--------------------------------|
B|--2--------------------------------0--------------------------------4----------------2----------------0--------------------------------|
G|--4----------(strumming)-----------1-----------(strumming)----------4---(strumming)--3--(strumming)---1----(strumming)-----------------|
D|--4--------------------------------2--------------------------------6----------------4----------------2--------------------------------|
A|--2--------------------------------2--------------------------------6----------------4----------------2--------------------------------|
E|-----------------------------------0--------------------------------4----------------2----------------0--------------------------------|

PRE-CHORUS

guitar 1 (distortion)
e|---------------------------------------------------------------------|
B|---------------------------------------------------------------------|
G|---------------------------------------------------------------------|
D|---------------------------------------------------------------------|
A|--6-~-------------4-~--------------2-~--------------2-2-2-2-2-2-2-2--|
E|--4-~-------------2-~--------------0-~--------------0-0-0-0-0-0-0-0--|

guitar 2 (dont know the effect)
e|------------14--------------16---------------14----------------------|
B|-(12)-14-16------(12)-14-16-------(12)-14-16----16-14hp16-12---------|
G|---------------------------------------------------------------------|
D|---------------------------------------------------------------------|
A|---------------------------------------------------------------------|
E|---------------------------------------------------------------------|

CHORUS

guitar 1 (distortion)
e|---------------------------------------------------------------------------------------------------------------------------------------|
B|---------------------------------------------------------------------------------------------------------------------------------------|
G|---------------------------------------------------------------------------------------------------------------------------------------|
D|--4-4-4-4-4-4-4-4-4-4-4-4-4-4-4-4----------------------------------------------------6-6-6-6-6-6-6-6-----------------------------------|
A|--2-2-2-2-2-2-2-2-2-2-2-2-2-2-2-2--6-6-6-6-6-6-6-6-6-6-6-6-6-6-6-6--2-2-2-2-2-2-2-2--4-4-4-4-4-4-4-4--4-4-4-4-4-4-4-4-4-4-4-4-4-4-4-4--|
E|-----------------------------------4-4-4-4-4-4-4-4-4-4-4-4-4-4-4-4--0-0-0-0-0-0-0-0-------------------2-2-2-2-2-2-2-2-2-2-2-2-2-2-2-2--|

guitar 2 (dont know the effect)
e|---------------------------------------------------------------------------------------------------------------------------------------|
B|---------------------------------------------------------------------------------------------------------------------------------------|
G|---------------------------------------------------------------------------------------------------------------------------------------|
D|----------------------1-4-1-----------------------------1-4-1-----------------------------------------------------------1-2-1----------|
A|------------------2-4-------4-2~--------------------2-4-------4hp6-2~---------------------------------4~--------------4-------4hp6-2~--|
E|-------------------------------------------------------------------------------------4~------------------------------------------------|

(continue)

guitar 1 (distortion)
e|---------------------------------------------------------------------------------------------------------------------------------------|
B|---------------------------------------------------------------------------------------------------------------------------------------|
G|---------------------------------------------------------------------------------------------------------------------------------------|
D|--4-4-4-4-4-4-4-4-4-4-4-4-4-4-4-4---------------------------------------------------------------------6-6-6-6-6-6-6-6------------------|
A|--2-2-2-2-2-2-2-2-2-2-2-2-2-2-2-2--6-6-6-6-6-6-6-6--4-4-4-4-4-4-4-4--2-2-2-2-2-2-2-2-2-2-2-2-2-2-2-2--4-4-4-4-4-4-4-4-4-4-4-4-4-4-4-4--|
E|-----------------------------------4-4-4-4-4-4-4-4--2-2-2-2-2-2-2-2--0-0-0-0-0-0-0-0-0-0-0-0-0-0-0-0------------------2-2-2-2-2-2-2-2--|

guitar 2 (dont know the effect)
e|---------------------------------------------------------------------------------------------------------------------------------------|
B|---------------------------------------------------------------------------------------------------------------------------------------|
G|---------------------------------------------------------------------------------------------------------------------------------------|
D|----------------------1-4-1-----------------------------1-4-1--------------------------------------------------------------------------|
A|------------------2-4-------4-2~--------------------2-4-------4hp6-2~----------------2-4-5--4--2--4-------------------4~---------------|
E|------------------------------------------------------------------------------------------------------4~-------------------------------|

before VERSE 2
e|-----------------------------------|
B|-----------------------------------|
G|-----------------------------------|
D|--444444-4--4-4-4-444444-4--4-4-4--|
A|--222222-2--2-2-2-222222-2--2-2-2--|
E|-----------------------------------|
pm ...... . . ...... . .

VERSE 2

guitar 1 (distortion)
e|---------------------------------------------------------------------------------------------------------------------------------------|
B|---------------------------------------------------------------------------------------------------------------------------------------|
G|---------------------------------------------------------------------------------------------------------------------------------------|
D|--444444-4--4-4-4-444444-4--4-4-4------------------------------------------------------------------------------------------------------|
A|--222222-2--2-2-2-222222-2--2-2-2--222222-2--2-2-2-222222-2--2-2-2--666666-6--6-6-6--444444-4--4-4-4--222222-2--2-2-2-222222-2--2-2-2--|
E|-----------------------------------000000-0--0-0-0-000000-0--0-0-0--444444-4--4-4-4--222222-2--2-2-2--000000-0--0-0-0-000000-0--0-0-0--|
pm ...... . . ...... . . ...... . . ...... . . ...... . . ...... . . ...... . . ...... . .

guitar 2 (distortion)
e|---------------------------------------------------------------------------------------------------------------------------------------|
B|---------------------------------------------------------------------------------------------------------------------------------------|
G|----------------------------------------------------------------------4---4---4---4---4---4---4---4---4---4---4---4---4---4---4---4----|
D|---------------------------------------------------------------------------------------------------------------------------------------|
A|--------------------------------------------------------------------22--22--22--22--22--22--22--22--22--22--22--22--22--22--22--22-----|
E|---------------------------------------------------------------------------------------------------------------------------------------|
pm .. .. .. .. .. .. .. .. .. .. .. .. .. .. .. ..

PRE-CHORUS

guitar 1 (clean)
e|--4----------------2----------------0--------------------------------|
B|--4----------------2----------------0--------------------------------|
G|--4---(strumming)--3--(strumming)---1----(strumming)-----------------|
D|--6----------------4----------------2--------------------------------|
A|--6----------------4----------------2---------------2-2-2-2-2-2-2-2--|
E|--4----------------2----------------0---------------0-0-0-0-0-0-0-0--|
(distortion)
guitar 2 (dont know the effect)
e|------------14--------------16---------------14----------------------|
B|-(12)-14-16------(12)-14-16-------(12)-14-16----16-14hp16-12---------|
G|---------------------------------------------------------------------|
D|---------------------------------------------------------------------|
A|---------------------------------------------------------------------|
E|---------------------------------------------------------------------|

CHORUS

same as 1st CHORUS

SOLO

guitar 1 (distortion)
e|------------------------------------------------------------------------------------------------------------------------------------------|
B|------------------------------------------------------------------------------------------------------------------------------------------|
G|------------------------------------------------------------------------------------------------------------------------------------------|
D|--4--4-4-4--4-4-4--4--4-4-4--4-4-4------------------------------------4--4-4-4--4-4-4--4--4-4-4--4-4-4------------------------------------|
A|--2--2-2-2--2-2-2--2--2-2-2--2-2-2--2--2-2-2--2-2-2--2--2-2-2--2-2-2--2--2-2-2--2-2-2--2--2-2-2--2-2-2--2--2-2-2--2-2-2-2-2-2-2-----------|
E|------------------------------------0--0-0-0--0-0-0--0--0-0-0--0-0-0------------------------------------0--0-0-0--0-0-0-0-0-0-0-----------|
pm . . . . . . . . . . . . . . . . . . . . . . . . . . . . . . . . . . .

guitar 2 (dont know the effect)
e|----------------------------------------------------(19)--19---19-~---191819-191819-191819-191819-1918-14---------------------------------|
B|-------------------------------------------------(19)---19---19------------19-----19-----19-----19---12-121112-121112-121112--------------|
G|-------------------------------------------------------------------------------------------------------------11-----11-----11-------------|
D|------------------------------------------------------------------------------------------------------------------------------------------|
A|------------------------------------------------------------------------------------------------------------------------------------------|
E|------------------------------------------------------------------------------------------------------------------------------------------|

CHORUS

same as 1st CHORUS

OUTRO

guitar 1 (distortion)
e|---------------------------------------------------------------------|
B|---------------------------------------------------------------------|
G|---------------------------------------------------------------------|
D|--4-4-4-4-4-4-4-4-4-4-4-4-4-4-4-4--6-6-6-6-6-6-6-6-------------------|
A|--2-2-2-2-2-2-2-2-2-2-2-2-2-2-2-2--4-4-4-4-4-4-4-4--4-4-4-4-6-6-6-6--|
E|----------------------------------------------------2-2-2-2-4-4-4-4--|

guitar 2 (dont know the effect)
e|---------------------------------------------------------------------|
B|---------------------------------------------------------------------|
G|---------------------------------------------------------------------|
D|-----------------(1)-2-1---1-2-~----------------------------4-~------|
A|--2-~--------------------4-------------------------------------------|
E|---------------------------------------------------------------------|

END
e|-------------------|
B|-------------------|
G|-------------------|
D|--444444-4--4-4-4--|
A|--222222-2--2-2-2--|
E|-------------------|
pm ...... . .

LYRICS

INTRO
รู้ว่าเสี่ยงแต่คงต้องขอลอง รู้ว่าเหนื่อยถ้าอยากได้ของที่อยู่สูง ยังไงจะขอลองดูซักที
VERSE 1
รู้ว่าเราแตกต่างกันเท่าไร รู้ว่าเธออยู่ไกล อยู่สูงขนาดไหน ใครๆก็รู้เป็นไปไม่ได้หรอก
PRE-CHORUS
แต่คำว่ารักมันสั่งให้ฉันต้องปีนขึ้นไป
CHORUS
ได้เกิดมาเจอเธอทั้งที ไม่ว่ายังไงต้องลองดีซักวัน
อยากรักก็ต้องเสี่ยง ไม่อยากให้เธอเป็นเพียงภาพในความฝัน
ลำบากลำบนไม่สนใจ ตะเกียกตะกายซักเพียงใด ก็ดีกว่าปล่อยเธอไปจากฉัน
ตกหลุมรักจริงๆ เพราะรักจริงๆ เธอคงไม่ว่ากัน
VERSE 2
แม้ต้อยต่ำแต่ยังมีหัวใจ แม้ต้องเจ็บ แต่มันก็คุ้มก็สุขใจ ไม่ผิดใช่ไหมที่ฉันไม่เจียมตัว
PRE-CHORUS
เมื่อคำว่ารักมันสั่งให้ฉันทำตามหัวใจ
CHORUS
ได้เกิดมาเจอเธอทั้งที ไม่ว่ายังไงต้องลองดีซักวัน
อยากรักก็ต้องเสี่ยง ไม่อยากให้เธอเป็นเพียงภาพในความฝัน
ลำบากลำบนไม่สนใจ ตะเกียกตะกายซักเพียงใด ก็ดีกว่าปล่อยเธอไปจากฉัน
ตกหลุมรักจริงๆ เพราะรักจริงๆ เธอคงไม่ว่ากัน
SOLO
CHORUS
ได้เกิดมาเจอเธอทั้งที ไม่ว่ายังไงต้องลองดีซักวัน
อยากรักก็ต้องเสี่ยง ไม่อยากให้เธอเป็นเพียงภาพในความฝัน
ลำบากลำบนไม่สนใจ ตะเกียกตะกายซักเพียงใด ก็ดีกว่าปล่อยเธอไปจากฉัน
ตกหลุมรักจริงๆ เพราะรักจริงๆ เธอคงไม่ว่ากัน
OUTRO
ตกหลุมรักจริงๆ รักเทอจริงๆ เธอคงไม่ว่ากัน

enjoy !

please send me anycorrections that you may have

thanx
คอร์ดเพลง เล่นของสูง

ความคิดเห็นเกี่ยวกับคอร์ดนี้

เวอร์ชั่นทั้งหมดของคอร์ดเพลงนี้

คอร์ดเพลง เล่นของสูง

5 | 1
โดย JoE Arch. 1 KMITL
เมื่อ 15 ปีที่แล้ว

คอร์ดเพลง เล่นของสูง

4 | 1
โดย น้องขุน - สารวิทยา
เมื่อ 15 ปีที่แล้ว

คอร์ดเพลง เล่นของสูง

2 | 0
โดย pommy
เมื่อ 15 ปีที่แล้ว

คอร์ดเพลง เล่นของสูง

2 | 0
โดย วงศ์ที่ผ่านเข้ารอบHotwave
เมื่อ 15 ปีที่แล้ว

คอร์ดเพลง เล่นของสูง

2 | 0
โดย เด็กจัย
เมื่อ 15 ปีที่แล้ว

คอร์ดเพลง เล่นของสูง

1 | 0
โดย ฺBig
เมื่อ 15 ปีที่แล้ว

คอร์ดเพลง เล่นของสูง

0 | 0
โดย Alongkorn James
เมื่อ 3 ปีที่แล้ว

คอร์ดเพลง เล่นของสูง

0 | 0
โดย ham
เมื่อ 4 ปีที่แล้ว

คอร์ดเพลง เล่นของสูง

0 | 0
โดย พี่บอม
เมื่อ 12 ปีที่แล้ว

คอร์ดเพลง เล่นของสูง

0 | 0
โดย อาร์ม แขน
เมื่อ 12 ปีที่แล้ว

คอร์ดเพลง เล่นของสูง

0 | 0
โดย โอ๊ตบางบอน
เมื่อ 12 ปีที่แล้ว

คอร์ดเพลง เล่นของสูง

0 | 0
โดย fw34
เมื่อ 13 ปีที่แล้ว

คอร์ดเพลง เล่นของสูง

0 | 0
โดย นาย ก.
เมื่อ 14 ปีที่แล้ว

คอร์ดเพลง เล่นของสูง

0 | 0
โดย บี
เมื่อ 15 ปีที่แล้ว

คอร์ดเพลง เล่นของสูง

0 | 0
โดย rrr
เมื่อ 15 ปีที่แล้ว

คอร์ดเพลง เล่นของสูง

0 | 0
โดย nataruzakii
เมื่อ 15 ปีที่แล้ว

คอร์ดเพลง เล่นของสูง

0 | 0
โดย ZHL
เมื่อ 15 ปีที่แล้ว

คอร์ดเพลง เล่นของสูง

0 | 0
โดย ป้อ ปริญช์ ภูวเรศ-ปริญช์
เมื่อ 15 ปีที่แล้ว

คอร์ดเพลง เล่นของสูง

0 | 0
โดย ไก่
เมื่อ 15 ปีที่แล้ว

คอร์ดเพลง เล่นของสูง

0 | 0
โดย โตโต้
เมื่อ 15 ปีที่แล้ว

คอร์ดเพลง เล่นของสูง

0 | 0
โดย system of a down
เมื่อ 15 ปีที่แล้ว

คอร์ดเพลง เล่นของสูง

0 | 0
โดย ปอนด์-เบลอ
เมื่อ 15 ปีที่แล้ว

คอร์ดเพลง เล่นของสูง

0 | 0
โดย เด็กเพิ่งหัด
เมื่อ 15 ปีที่แล้ว

คอร์ดเพลง เล่นของสูง

0 | 0
โดย บอยไตรมิตร
เมื่อ 15 ปีที่แล้ว

เนื้อเพลง เล่นของสูง - บิ๊กแอส (Big Ass)

เล่นของสูง
rtist : บิ๊กแอส(g )



รู้ว่าเสี่ยงแต่คงต้องขอลอง รู้ว่าเหนื่อยถ้าอยากได้ของที่อยู่สูง


ยังไงจะขอลองดูซักที


รู้ว่าเราแตกต่างกันเท่าไร รู้ว่าเธออยู่ไกล อยู่สูงขนาดไหน


ใครๆก็รู้เป็นไปไม่ได้หรอก


แต่คำว่ารักมันสั่งให้ฉันต้องปีนขึ้นไป


*ได้เกิดมาเจอเธอทั้งที ไม่ว่ายังไงต้องลองดีซัก...วัน


อยากรักก็ต้องเสี่ยง ไม่อยากให้เธอเป็นเพียงภาพในความฝัน


ลำบากลำบนไม่สนใจ ตะเกียกตะกายซักเพียงใด ก็ดีกว่าปล่อยเธอไปจากฉัน


ตกหลุมรักจริงๆ เพราะรักจริงๆ เธอคงไม่ว่ากัน




แม้ต้อยต่ำแต่ยังมีหัวใจ แม้ต้องเจ็บ แต่มันก็คุ้มก็สุขใจ


ไม่ผิดใช่ไหมที่ฉันไม่เจียม...ตัว


เมื่อคำว่ารักมันสั่งให้ฉันทำตามหัวใจ

( * )

solo : ( 2 times)

( * )


ตกหลุมรักจริงๆ รักเธอจริงๆ เธอคงไม่ว่ากัน

Cover เพลงเล่นของสูง


ยังไม่มี Cover เพลงนี้

[ ช่วยกันแบ่งปันคลิปเพลงที่คุณเล่นเอง ]

ฟังเพลง เล่นของสูง

ทุ้มอยู่ในใจ - บิ๊กแอส (Big Ass)
เมื่อ 8 ปีที่แล้ว
ยังไม่มีคอร์ด
พรหมลิขิต - บิ๊กแอส (Big Ass)
เมื่อ 12 ปีที่แล้ว
ค้นพบคอร์ด 82 เวอร์ชั่น
ลมเปลี่ยนทิศ - บิ๊กแอส (Big ass)
เมื่อ 6 ปีที่แล้ว
ค้นพบคอร์ด 4 เวอร์ชั่น
เล่นของสูง - บิ๊กแอส (Big Ass)
เมื่อ 15 ปีที่แล้ว
ค้นพบคอร์ด 40 เวอร์ชั่น
ทิ้งไว้ในใจ - บิ๊กแอส (Big Ass)
เมื่อ 16 ปีที่แล้ว
ค้นพบคอร์ด 22 เวอร์ชั่น
คนหลงทาง - บิ๊กแอส (Big Ass)
เมื่อ 12 ปีที่แล้ว
ค้นพบคอร์ด 84 เวอร์ชั่น
อย่างน้อย - บิ๊กแอส(ost.ปิดเทอมใหญ่ หัวใจว้าวุ่น)
เมื่อ 11 ปีที่แล้ว
ค้นพบคอร์ด 26 เวอร์ชั่น
ทางผ่าน - บิ๊กแอส (Big Ass)
เมื่อ 15 ปีที่แล้ว
ค้นพบคอร์ด 11 เวอร์ชั่น
ก่อนตาย - บิ๊กแอส (Big Ass)
เมื่อ 15 ปีที่แล้ว
ค้นพบคอร์ด 22 เวอร์ชั่น
เรา - บิ๊กแอส บอดี้สแลม
เมื่อ 14 ปีที่แล้ว
ค้นพบคอร์ด 23 เวอร์ชั่น
ข้าน้อยสมควรตาย - บิ๊กแอส (Big Ass)
เมื่อ 12 ปีที่แล้ว
ค้นพบคอร์ด 27 เวอร์ชั่น
หัวใจ - บิ๊กแอส (Big Ass)
เมื่อ 10 ปีที่แล้ว
ค้นพบคอร์ด 2 เวอร์ชั่น
ส่งท้ายคนเก่าต้อนรับคนใหม่ - บิ๊กแอส (Big Ass)
เมื่อ 10 ปีที่แล้ว
ยังไม่มีคอร์ด
สิ่งกีดขวาง - บิ๊กแอส (Big Ass)
เมื่อ 12 ปีที่แล้ว
ค้นพบคอร์ด 27 เวอร์ชั่น
พรมลิขิต - บิ๊กแอส
เมื่อ 12 ปีที่แล้ว
ค้นพบคอร์ด 25 เวอร์ชั่น
น้ำตา(Big Ass) - บิ๊กแอส (Big Ass)
เมื่อ 15 ปีที่แล้ว
ค้นพบคอร์ด 9 เวอร์ชั่น
บันทึกหน้าสุดท้าย - บิ๊กแอส (Big Ass)
เมื่อ 10 ปีที่แล้ว
ยังไม่มีคอร์ด
ฝุ่น - บิ๊กแอส (big Ass)
เมื่อ 10 ปีที่แล้ว
ค้นพบคอร์ด 7 เวอร์ชั่น
ดีแต่ปาก - บิ๊กแอส (Big Ass)
เมื่อ 15 ปีที่แล้ว
ค้นพบคอร์ด 22 เวอร์ชั่น
เหตุผลง่ายๆ - บิ๊กแอส (BigAss)
เมื่อ 16 ปีที่แล้ว
ค้นพบคอร์ด 7 เวอร์ชั่น