คอร์ดเพลง แค่บอกว่ารักเธอ - หมีพูห์

Version 1
แกะโดย BoAt`giggs
เมื่อ 21 มี.ค.2547,21:08น.
ดู 241767 ครั้ง
อันนี้เราแกะเองนะครับทั้งคอร์ด , โซโล่ ไม่ตรงยังไงขออภัยด้วย ^ o ^


แค่บอกว่ารักเธอ

Intro :Csus4/C/Am7/Am/Dm7Dm/G7 ( 2รอบ )

C Em7
ทน..กับตัวเองมานางเหลือเกิน
Ebm/ Dm7 G C / G
ใครๆเค้าก้อยังเมิน ไม่แปลกใจเลยที่ไม่มีคู่ครอง
C Em7 Ebm/Dm7
เธอ..มีใครหลายคนหมายปอง ฉันเองก็ยังคอยมอง
G C / G
แต่ไม่กล้าเหมือนเดิมจะทำฉันใด..

C Em7
ถ้าหากรักนี้ ไม่บอกไม่พูดไม่กล่าว
Ebm/Dm7 G
แล้วเค้าจารู้ว่ารักรึเปล่า อาจจะไม่แน่ใจ
C Em7
อยากให้เค้ารู้(ฉัน)(เธอ)คงต้องแสดงออก
Ebm/Dm7 G C
ไม่ใช่ให้ใครเค้าบอก หรือไว้ให้เค้าเดาเอง (ว่ารักเธอ)(ว่าเธอรัก)

C Em7 Ebm/Dm7
ทน..อึดอัดใจมานานหลายปี ไม่กล้าใกล้เธอซักที
G C / G
เจอะกี่ครั้งก้อยังเป็นอยู่เช่นเคย
C Em7 Ebm/Dm7
คุยกับตัวเองทำไมต้องกลัว เจอทีไรใจมันเต้นรัว
G C / G
ทั้งที่บอกกับตัวเองเรื่อยมา..ว่า

(*)

Solo : C / Em7 /Dm7 / G7 (2รอบ)
Em Am
ใครจะไปคิดเอาเอง ว่าเธอนั้นมีใจ
Dm7 G7
มันง่ายเกินไป เหมือนว่าหลงตัวเอง
Em7 Am
เอ่ยไปเลยว่ารัก ไม่ต้องเกรงใจใคร
Dm7 G7
จะยากอะไร ก้อแค่บอกว่าฉันรักเธอ...

(*) , (*)
C
เค้าอาจจะบอกว่ารักเธอ..





Solo

---------------------------------------------------------------------------------------------------------------------
--------------------8-8----8-----8-10-12-12-10-8--------------------------------------------------------
-----------5-7-9------9------9---------------------------9--7-5-5-----5---------5-7-9-9-9-7-5-7----
----5-7-------------------------------------------------------------------7-----5-7-----------------------------
---------------------------------------------------------------------------------------------------------------------
---------------------------------------------------------------------------------------------------------------------

--------------------------10-----10-------------------8----8--8-----8------8-10-12-12-12-12--10-8-10-
-----------------8-8----8---8-10-12-----12------12-10-8--10--10-------10---10-------------------------
--------5-7-9------9-----9------------------------------------------------------------------------------------------
--5-7-----------------------------------------------------------------------------------------------------------------
------------------------------------------------------------------------------------------------------------------------
------------------------------------------------------------------------------------------------------------------------

-10-8-15-15------------15-15-15-------------------------------------------------------------------------------
------------------13-13----------------12-12-12-13-12-10-----10-----------------5-7-9-9-9-9--7-5-7-
---------------------------------------------------------------------12------5--5---5-7----------------------------
------------------------------------------------------------------------------------------------------------------------
------------------------------------------------------------------------------------------------------------------------
------------------------------------------------------------------------------------------------------------------------
คอร์ดเพลง แค่บอกว่ารักเธอ

ความคิดเห็นเกี่ยวกับคอร์ดนี้

เวอร์ชั่นทั้งหมดของคอร์ดเพลงนี้

เนื้อเพลง แค่บอกว่ารักเธอ - หมีพูห์

โว้ว โอ โว้ว โอ โว้ว โอ ชะ ชา
ฉะ ชะ ชา ด่าช้าชา ฉะชาดะช้าช้า
ทนกับตัวเองมานานเหลือเกิน ใคร ๆ เค้าก็ยังเมิน
ไม่แปลกใจเลยที่ไม่มีคู่ครอง
เธอมีใครหลายคนหมายปอง
ฉันเองก็ยังคอยมอง
แต่ไม่กล้าเหมือนเดิมจะทำฉันใด
*ถ้าหากรักนี้ ไม่บอกไม่พูดไม่กล่าว
แล้วเค้าจะรู้ว่ารักหรือเปล่า อาจจะไม่แน่ใจ
อยากให้เค้ารู้ ฉันคงต้องแสดงออก
ไม่ใช่ให้ใครเค้าบอก หรือว่าให้เค้าเดาเอง ว่ารักเธอ
ทนอึดอัดใจมานานหลายปี ไม่กล้าใกล้เธอซักที
เจอกี่ครั้งก็ยังเป็นอยู่เช่นเคย
คุยกับตัวเองทำไมต้องกลัว เจอทีไรใจมันเต้นรัว
ทั้งที่บอกกับตัวเองอยู่เรื่อยมา..ว่า(ซ้ำ *)
ใครจะไปคิดเอาเอง ว่าเธอนั้นมีใจ
มันง่ายเกินไป เหมือนว่าหลงตัวเอง
เอ่ยไปเลยว่ารัก ไม่ต้องเกรงใจใคร
จะยากอะไรก็แค่บอกว่าฉันรักเธอ(ซ้ำ*)

Cover เพลงแค่บอกว่ารักเธอ


ยังไม่มี Cover เพลงนี้

[ ช่วยกันแบ่งปันคลิปเพลงที่คุณเล่นเอง ]

ฟังเพลง แค่บอกว่ารักเธอ