คอร์ดเพลง เสียงจากคนใกล้ตัว - ซาซ่า (Zaza)

Version 3
แกะโดย Tc
เมื่อ 6 พ.ค.2548,23:59น.
ดู 2074 ครั้ง
Solo ผมแบ่งเปง2ท่อนอ่าคับ

ท่อนแรก ดีดปกติคับ
1-------------------------------------------------------------------------------------------------------------
2--10/12------10/12-------10/12-------10/12-----------------------------------------------------
3------------9-9----------9-8-----------8-8-----------8-8--6-6--8-9--8-9--11-6/8-6-6-4-4-----
4-------------------------------------------------------------------------------------------------------------
5-------------------------------------------------------------------------------------------------------------
6-------------------------------------------------------------------------------------------------------------

ตง 6-6-ให้รูดมา-4-4


ท่อน2ที่มานเปงเสียงแตกๆถ้าเอาเหมือนๆก้อใส่เอฟเฟคอ่าคับ ดีดต่อกานเลย

1-------------------------------------------------11/12--11--12--11--7/9-7-------7-9--------------
2-------------------10/12--12------10/12-------------------------------------7/9-------7-7--5-5--
3----------9-----9---------------9-9-----------------------------------------------------------------------
4--9--11---11----------------------------------------------------------------------------------------------
5--------------------------------------------------------------------------------------------------------------
6--------------------------------------------------------------------------------------------------------------

ตง 7-7-ให้รูดมา-5-5

1-----------------------------------------------------
2--------------------------------10/12-------------
3------------11---9-9------9-----------------------
4----9/11-------------11---------------------------
5------------------------------------------------------
6------------------------------------------------------

แหะๆในทีสุดก้อเขียนจบ ขอโทษด้วยคับถ้าดูมะค่อยออก พอดีเพิ่งลองเขียนลงนี่ครั้งแรก
ปล.ลองๆเล่นดูคับ ถูกผิดยังไง ติด้วยละกาน
คอร์ดเพลง เสียงจากคนใกล้ตัว

ความคิดเห็นเกี่ยวกับคอร์ดนี้

เนื้อเพลง เสียงจากคนใกล้ตัว - ซาซ่า (Zaza)

เสียงจากคนใกล้ตัว
rtist : ซาซ่า(zaza)
อยากจะเป็นคนของเธออยากจะเป็นคนสำคัญฉันได้แต่หวังไป อยากจะเป็นกว่าเพื่อนกัน อยากจะยืนข้างๆใจ ฉันได้แต่ทนเก็บไว้
* ได้ยินไหมใจฉันบอกรักเธอ เธอได้ยินหรือเปล่า ฮูว์.............. รักเธอเหลือเกิน
** อยากให้เธอรู้ว่าคนใกล้ๆตัว แอบรักเธอมานานเท่าไหร่ แอบมีอะไรอยู่ในความสัมพันธ์ ก้อมีแต่เสียงที่ดังก้องในใจ ว่ารักเธออย่างนั้น ได้แต่รอวันที่เทอจะรู้ใจ
อยากจะมีคำพูดจาเอ่ยบอกแทนเสียงหัวใจ ให้เทอได้รู้ไป ติดที่คำว่าเพื่อนกัน ติดที่กลัวเสียเทอไป ถ้าเทอไม่คิดอย่างฉัน
( ซ้ำ * , **, ** )

Cover เพลงเสียงจากคนใกล้ตัว


ยังไม่มี Cover เพลงนี้

[ ช่วยกันแบ่งปันคลิปเพลงที่คุณเล่นเอง ]

ฟังเพลง เสียงจากคนใกล้ตัว

เลือกได้ไหม - ซาซ่า (Zaza)
เมื่อ 17 ปีที่แล้ว
ค้นพบคอร์ด 4 เวอร์ชั่น
เหรอ - ซาซ่า Zaza Feat Buddha Bless
เมื่อ 14 ปีที่แล้ว
ค้นพบคอร์ด 1 เวอร์ชั่น
ความเดิมตอนที่แล้ว - ซาซ่า (ZaZa)
เมื่อ 14 ปีที่แล้ว
ค้นพบคอร์ด 7 เวอร์ชั่น
เสียงจากคนใกล้ตัว - ซาซ่า (Zaza)
เมื่อ 16 ปีที่แล้ว
ค้นพบคอร์ด 5 เวอร์ชั่น
จบไปได้แล้ว - ซาซ่า (Zaza)
เมื่อ 17 ปีที่แล้ว
ยังไม่มีคอร์ด
ความผิดติดตัว - ซาซ่า(ZAZA)
เมื่อ 13 ปีที่แล้ว
ค้นพบคอร์ด 3 เวอร์ชั่น
คนใจร้าย - ซาซ่า (Zaza)
เมื่อ 14 ปีที่แล้ว
ค้นพบคอร์ด 1 เวอร์ชั่น
รักคืออะไรนะ - ซาซ่า (Zaza)
เมื่อ 16 ปีที่แล้ว
ยังไม่มีคอร์ด
คนใกล้ตัว - ซาซ่า (Zaza)
เมื่อ 16 ปีที่แล้ว
ค้นพบคอร์ด 2 เวอร์ชั่น
คนใจร้าย - ซาซ่า (Zaza)
เมื่อ 13 ปีที่แล้ว
ยังไม่มีคอร์ด
สวัสดี - ซาซ่า (Zaza)
เมื่อ 17 ปีที่แล้ว
ยังไม่มีคอร์ด
รักไม่รัก - ซาซ่า (ZAZA)
เมื่อ 10 ปีที่แล้ว
ยังไม่มีคอร์ด
นอนไม่หลับ - ซาซ่า (Zaza)
เมื่อ 7 ปีที่แล้ว
ค้นพบคอร์ด 1 เวอร์ชั่น
ข้อสอบ - ซาซ่า (Zaza)
เมื่อ 7 ปีที่แล้ว
ค้นพบคอร์ด 1 เวอร์ชั่น
เข้าใจใช่ไหม - ซาซ่า (Zaza)
เมื่อ 7 ปีที่แล้ว
ค้นพบคอร์ด 1 เวอร์ชั่น
Love you tonight - ซาซ่า (Zaza)
เมื่อ 7 ปีที่แล้ว
ค้นพบคอร์ด 2 เวอร์ชั่น
เธอใช่ไหม - พิม ซาซ่า (ZAZA)
เมื่อ 7 ปีที่แล้ว
ค้นพบคอร์ด 1 เวอร์ชั่น
Memory - ซาซ่า (Zaza)
เมื่อ 7 ปีที่แล้ว
ค้นพบคอร์ด 1 เวอร์ชั่น
Hey Dj - ซาซ่า (Zaza)
เมื่อ 7 ปีที่แล้ว
ค้นพบคอร์ด 1 เวอร์ชั่น
คนใจร้าย - พิม ซาซ่า (ZAZA)
เมื่อ 7 ปีที่แล้ว
ค้นพบคอร์ด 1 เวอร์ชั่น