คอร์ดเพลง สัญญากาสะลอง - พลพล feat. ลานนา คัมมินส์

Version 6
แกะโดย โนบิตะคุง
เมื่อ 18 ก.ค.2548,18:29น.
ดู 4104 ครั้ง
เอาใหม่นะครับ
ทำไมโย้ไปโย้มา

Intro : คีย์ C นะครับ

C Am F G

-0----------0----3----|---------------0----3---|-1----------3--1----0---|------------------3-----------|
----------3-------------|-1--------3------------|----------------------------|-3--------3------------------|
-------0-------0----0-|--------2--------2------|---------2---------2---2-|--------0---------------------|
----2-------------------|----2-------------------|-----3---------------------|----0-------------------------|
-3----------------------|-0----------------------|----------------------------|------------------------------|
-------------------------|-------------------------|-1-------------------------|-3---------------------------|

C Am F6 G

-0--------------0------3----|-5------5-----5---------|--------------------------0-|-----------------3-----|
-------------3----------------|-5---------8-----8--5--|-3---------1--3-----------|-3--------3------------|
---------0----------0-----0-|-----5--------------------|--------2------------2-----|-------0---------------|
-----2------------------------|--------------------------|-----3------------3--------|----0------------------|
-3----------------------------|-0-----------------------|-----------------------------|------------------------|
------------------------------|---------------------------|-1--------------------------|-3---------------------|

คอร์ดเพลง สัญญากาสะลอง

ความคิดเห็นเกี่ยวกับคอร์ดนี้

เนื้อเพลง สัญญากาสะลอง - พลพล feat. ลานนา คัมมินส์

กลางค่ำคืนแสงจันทร์ อ้ายบ่าวบ้านใด๋กัน มายืนเดียวดาย
เพียงมาชื่นชมดอกไม้ หรือมาพบมาคอยใคร ใต้เงาแสงจันทร์

กลางค่ำคืนแสงดาว กาสะลองพร่างพราว ขาวนวลเต็มลาน
มีใครจะพอสงสาร ให้ที่พักคนเดินทาง ได้พอพึ่งพา

* ขอฝากตัวฝากใจ (คงฝากไผมานัก เจอผู้ใดก็ฮักไปเรื่อยกา)
(ข้าบ่ฮับฝากใจไผ) รับเอาไว้เถิดหนา สัญญาว่าไม่มีวันขอคืน ทั้งตัวทั้งใจ
(เพียงถ้อยคำสัญญา จะเชื่อใจได้กา ว่าจริงเพียงใด)
ชั่วฟ้าดินสลาย สัญญารักที่ให้ไป ไม่เลือนร้างลา

(ซ้ำ *)

** ปากหวานๆจะไว้ใจได้กา อู้เพราะๆจะไว้ใจได้กา
ตาซึ้งๆจะไว้ใจได้กา เสียงนุ่มๆจะไว้ใจได้กา
ตัวสูงๆจะไว้ใจได้กา คำอ้อนๆจะไว้ใจได้กา
อยู่เมืองไกลจะไว้ใจได้กา บอกฮักข้าเจ้าจะไว้ใจได้กา

(ซ้ำ **)

Cover เพลงสัญญากาสะลอง


ยังไม่มี Cover เพลงนี้

[ ช่วยกันแบ่งปันคลิปเพลงที่คุณเล่นเอง ]

ฟังเพลง สัญญากาสะลอง

คนไม่สำคัญ - พลพล
เมื่อ 14 ปีที่แล้ว
ค้นพบคอร์ด 10 เวอร์ชั่น
กอดหน่อยได้ไหม - พลพล
เมื่อ 7 ปีที่แล้ว
ค้นพบคอร์ด 5 เวอร์ชั่น
ชั่วฟ้าดินสลาย - พลพล พลกองเส็ง
เมื่อ 14 ปีที่แล้ว
ค้นพบคอร์ด 11 เวอร์ชั่น
ตาแดงแดง - พลพล feat. พั้นช์ (พันช์)
เมื่อ 14 ปีที่แล้ว
ค้นพบคอร์ด 5 เวอร์ชั่น
แค่มี - พลพล
เมื่อ 11 ปีที่แล้ว
ค้นพบคอร์ด 5 เวอร์ชั่น
ยังยิ้มได้ - พลพล
เมื่อ 12 ปีที่แล้ว
ค้นพบคอร์ด 5 เวอร์ชั่น
อุ่นใจ - พลพล
เมื่อ 14 ปีที่แล้ว
ค้นพบคอร์ด 36 เวอร์ชั่น
ขอให้โชคดี - พลพล
เมื่อ 14 ปีที่แล้ว
ค้นพบคอร์ด 4 เวอร์ชั่น
ใจคอ - พลพล
เมื่อ 15 ปีที่แล้ว
ค้นพบคอร์ด 6 เวอร์ชั่น
คนไกลเบอร์เก่า - พลพล feat.ต่าย อรทัย
เมื่อ 14 ปีที่แล้ว
ยังไม่มีคอร์ด
คนเดินถนน - พลพล
เมื่อ 14 ปีที่แล้ว
ค้นพบคอร์ด 5 เวอร์ชั่น
สัญญากาสะลอง - พลพล feat. ลานนา คัมมินส์
เมื่อ 13 ปีที่แล้ว
ค้นพบคอร์ด 6 เวอร์ชั่น
อ้วนดำ - พลพล-พั้นช์
เมื่อ 13 ปีที่แล้ว
ค้นพบคอร์ด 4 เวอร์ชั่น
ห่วงใย - พลพล
เมื่อ 14 ปีที่แล้ว
ค้นพบคอร์ด 3 เวอร์ชั่น
คนไม่เจียม - พลพล
เมื่อ 11 ปีที่แล้ว
ค้นพบคอร์ด 2 เวอร์ชั่น
สักวันหนึ่ง - พลพล
เมื่อ 14 ปีที่แล้ว
ค้นพบคอร์ด 3 เวอร์ชั่น
คนคนนี้ - พลพล
เมื่อ 14 ปีที่แล้ว
ค้นพบคอร์ด 2 เวอร์ชั่น
คนที่เธอไม่รัก - พลพล
เมื่อ 10 ปีที่แล้ว
ค้นพบคอร์ด 2 เวอร์ชั่น
วันนั้นอย่าลืมวันนี้ - พลพล
เมื่อ 9 ปีที่แล้ว
ค้นพบคอร์ด 1 เวอร์ชั่น
คำสามคำ - พลพล พลกองเส็ง
เมื่อ 16 ปีที่แล้ว
ค้นพบคอร์ด 2 เวอร์ชั่น