คอร์ดเพลง รักภาษาอะไร - ไอ-เบบี้ (I-babie)

Version 6
แกะโดย โด่ง Cha-Ba
เมื่อ 9 พ.ย.2548,13:07น.
ดู 2805 ครั้ง
เพลงนี้เราทดสายเล่นนะครับ เลยแกะเป็น แอฟเมเจอร์ ลองดูเอา

Intro:Bb/Am/Gm C/F
1)------------------------------------------12--------------------------------------------------------
2)10-8-10------------------13-13-13-----13-13-13-111-11-10-10-8-----8---------13-
3)-----------10-10-12-10------------------------------------------------------10---10-14-----

ถ้าตั้งสายตรง A=440Hz ก็เลื่อนขึ้น 1เสียงนะ

Solo:
1)--------------------------------------------------------------------------------------------------------
2)-13-15-15-15-11-10-11-10--------------------------------------------------------------------
3)------------------------------------10-12-10-14-14-12-10-----------------9-10----9-10----
4)-------------------------------------------------------------------12-10-12-12------10-----------
******************
1)------------------------------------------------12-13-----------I
2)-----------------------10-11-13-----13-15-------------------I
3)------------9-10-12---------------------------------------------I
4)-8-10-12--------------------------------------------------------I

ประมาณนี้อะอันนี้เป็นโน้ตสดๆนะ สำเนียงลองไปแกะดูเอง

ส่วน Solo Outtro น้าจะคล้ายๆ intro นะ

คอร์ดเพลง รักภาษาอะไร

ความคิดเห็นเกี่ยวกับคอร์ดนี้

เนื้อเพลง รักภาษาอะไร - ไอ-เบบี้ (I-babie)

ลืม ลืมแล้วว่ากี่ครั้ง
ที่เธอทำให้ช้ำให้ฉันเสียน้ำตา
เจ็บมันเจ็บเสียมากกว่า
เมื่อมองความเฉยชา อยู่บนใบหน้าเธอ
เหงา เงียบงันและเหน็บหนาว
เดียวดายและปวดร้าว เท่าไรยังต้องเจอ
รัก จากปากคำของเธอ
กับสิ่งที่ฉันเจอ เคยตรงกันบ้างไหม
*รักกันแล้วต้องมีน้ำตา
แบบนี้รักภาษาอะไร
ไม่มีคนรักหน้าไหนเค้าทำกัน
รักที่ให้กันแต่น้ำตาอย่างที่เธอมีให้ฉัน
ยังเรียกว่ารักได้อีกหรือเธอ
ท้อยิ่งนานก้อยิ่งท้อ
และคงไม่อยู่รอให้เธอเป็นคนลา
ยอม ยอมไปดีซะกว่า
ต้องอยู่กับน้ำตาที่นับวันยิ่งไหล
(*)

(*)

ป.ล.โพสเพลงให้แล้วน๊า แกงคอร์ดให้หน่อยดิ

Cover เพลงรักภาษาอะไร


ยังไม่มี Cover เพลงนี้

[ ช่วยกันแบ่งปันคลิปเพลงที่คุณเล่นเอง ]

ฟังเพลง รักภาษาอะไร