คอร์ดเพลง เด็ดดอกฟ้า - เบบี้ บูล (Baby Bull)

Version 6
แกะโดย ~[v!nz]~
เมื่อ 31 ธ.ค.2548,11:39น.
ดู 2083 ครั้ง
อะๆ
solo100% ไม่หมดนเกือบจบนะ-0-
1>------------------15p-------------------15/17--15--------------15----------15------------15-
2>--13--15--13---------13---15--13------------------12--13-------12--13------12--13-----

1>----------15-----------15-----------15----------------------------------------------------
2>12--13------12--13-----12--13-----15/17---17--15--13--15--12/13----------
3>--------------------------------------------------------------------------------------14--12

1>----------15-----------15-----------15-----------15------------15-------------15
2>12--13------12--13-----12--13-----12--13-------12--13-------12--13

1>----------19------------19-------------19-----------19-----------19----------19---19/21
2>15--17------15--17-------15--17-------15--17-----15--17-----15--17-------------

ได้แค่นีแหละ
เวลาแกะน้อย
* - -นั่งเล่นแรนกะmsnม่อสาวดีก่า หุๆๆๆ
คอร์ดเพลง เด็ดดอกฟ้า

ความคิดเห็นเกี่ยวกับคอร์ดนี้

เนื้อเพลง เด็ดดอกฟ้า - เบบี้ บูล (Baby Bull)


ใครก็เตือน ให้ตัดใจจากเธอ.....

ก็เพราะเธอ อยู่บนฟ้าไกล....

เราก็แค่ดิน อย่าสะเออะมองฟ้า....

โชคชะตา พาให้พบเธอ.....


ดังมีกำแพง....ฉันมันก็คนเดินดิน

เธออย่างกับนางฟ้า........ ต่างกันไกล เพราะเราต่างกันไกล


แต่ยังไงขอลองเด็ดดอกฟ้าสักครั้งนึง.......

จะทำให้เธอได้ซึ่งใจ ว่าหมาวัดเป็นอย่างไร

บอกตัวเองขอลองเด็ดดอกฟ้าสักครั้งนึง.......

จะเป็นยังไงให้รู้ไป จะใช้ทั้งใจที่มี....เพื่อรักเธอ

ให้รู้กันไป...............


ดังมีกำแพง......ฉันมันก็คนเดินดิน

เธออย่างกับนางฟ้า.. .....ต่างกันไกล เพราะเราต่างกันไกล


แต่ยังไงขอลองเด็ดดอกฟ้าสักครั้งนึง.....

จะทำให้เธอได้ซึ่งใจ ว่าหมาวัดเป็นอย่างไร

บอกตัวเองขอลองเด็ดดอกฟ้าสักครั้งนึง.......

จะเป็นยังไงให้รู้ไป จะใช้ทั้งใจที่มี....เพื่อรักเธอ.................



ใครมีคอร์ดก็ช่วยลงให้ด้วยนะจ๊ะ มีคนขอมาอ่ะนะว่าให้แกะเนื้อให้

แล้วอยากได้คอร์ดด้วยอ่ะ ครายมีก็โพสให้ด้วยหละกานนะ






Cover เพลงเด็ดดอกฟ้า


ยังไม่มี Cover เพลงนี้

[ ช่วยกันแบ่งปันคลิปเพลงที่คุณเล่นเอง ]

ฟังเพลง เด็ดดอกฟ้า

ผู้ร้ายจำเป็น - เบบี้ บูล (ฺBaby bull)
เมื่อ 9 ปีที่แล้ว
ค้นพบคอร์ด 1 เวอร์ชั่น
เกมส์ชีวิตจริง - เบบี้ บูล (Baby Bull)
เมื่อ 14 ปีที่แล้ว
ค้นพบคอร์ด 12 เวอร์ชั่น
เด็ดดอกฟ้า - เบบี้ บูล (Baby Bull)
เมื่อ 14 ปีที่แล้ว
ค้นพบคอร์ด 7 เวอร์ชั่น
ไม่มีอะไรจริงๆ - เบบี้ บูล
เมื่อ 16 ปีที่แล้ว
ค้นพบคอร์ด 3 เวอร์ชั่น
ความจริงของคนเจ้าชู้ - เบบี้ บูล (Baby Bull)
เมื่อ 13 ปีที่แล้ว
ค้นพบคอร์ด 2 เวอร์ชั่น
เพราะเธอเป็นคนดี - เบบี้ บูล
เมื่อ 16 ปีที่แล้ว
ค้นพบคอร์ด 2 เวอร์ชั่น
ไม่ต้องมาดีกว่า - เบบี้ บูล (Baby Bull)
เมื่อ 13 ปีที่แล้ว
ค้นพบคอร์ด 5 เวอร์ชั่น
เธอไม่สวย ฉันไม่หล่อ - เบบี้ บูล (Baby Bull)
เมื่อ 13 ปีที่แล้ว
ค้นพบคอร์ด 2 เวอร์ชั่น
เกมชีวิตจริง - เบบี้ บูล (Baby Bull)
เมื่อ 6 ปีที่แล้ว
ค้นพบคอร์ด 1 เวอร์ชั่น
แค่ฝัน - เบบี้ บูล (Baby Bull)
เมื่อ 6 ปีที่แล้ว
ค้นพบคอร์ด 2 เวอร์ชั่น
วัวหาย ล้อมคอก - เบบี้ บูล (Baby Bull)
เมื่อ 6 ปีที่แล้ว
ค้นพบคอร์ด 1 เวอร์ชั่น
ละครหลังข่าว - เบบี้ บูล (Baby Bull)
เมื่อ 6 ปีที่แล้ว
ค้นพบคอร์ด 1 เวอร์ชั่น
มากกว่านิสัย - เบบี้ บูล (Baby Bull)
เมื่อ 6 ปีที่แล้ว
ค้นพบคอร์ด 1 เวอร์ชั่น