คอร์ดเพลง คนเลวที่รักเธอ - ปนัดดา

Version 9
แกะโดย แบงค์ วง Zad
เมื่อ 5 มี.ค.2549,07:49น.
ดู 2792 ครั้ง
ออ..ลืมตอนจบท่อนฮุคครั้งแรกเล่นเหมือน Intro แต่รอบเดียวนะ

C Em Dm G C Em Dm G
1|--------3----------3---------------------------------3-----------3--------------------------------
2|--------------------------------5s6--5-------------------------------6--------5s6--5----------
3|------------------------------------------5-------------------------------------------------5-------
4|---------------------------------------------5--------------------------------------------------5---
5|---3---------2---------0-----------------------3----------2---------------------------------------

แก้ไข Outro นิดนึง คอร์ดมานเลื่อนไปติดขอบ

C Em Dm G C Em Dm G
1|--------3----------3---------------------------------3-----------3--------------------------------
2|--------------------------------5s6--5-------------------------------6--------5s6--5----------
3|------------------------------------------5-------------------------------------------------5-------
4|---------------------------------------------5--------------------------------------------------5---
5|---3---------2---------0-----------------------3----------2---------------------------------------

โอเคแระ
คอร์ดเพลง คนเลวที่รักเธอ

ความคิดเห็นเกี่ยวกับคอร์ดนี้

เวอร์ชั่นทั้งหมดของคอร์ดเพลงนี้

คอร์ดเพลง คนเลวที่รักเธอ

0 | 0
โดย แบงค์ วง Zad
เมื่อ 13 ปีที่แล้ว

คอร์ดเพลง คนเลวที่รักเธอ

0 | 0
โดย แบงค์ วง Zad
เมื่อ 13 ปีที่แล้ว

คอร์ดเพลง คนเลวที่รักเธอ

0 | 0
โดย แบงค์ วง Zad
เมื่อ 13 ปีที่แล้ว

คอร์ดเพลง คนเลวที่รักเธอ

0 | 0
โดย แบงค์ วง Zad
เมื่อ 13 ปีที่แล้ว

คอร์ดเพลง คนเลวที่รักเธอ

0 | 0
โดย taeki
เมื่อ 13 ปีที่แล้ว

คอร์ดเพลง คนเลวที่รักเธอ

0 | 0
โดย มือคีย์บอร์ด วง Under Water
เมื่อ 13 ปีที่แล้ว

คอร์ดเพลง คนเลวที่รักเธอ

0 | 0
โดย 555
เมื่อ 13 ปีที่แล้ว

คอร์ดเพลง คนเลวที่รักเธอ

0 | 0
โดย pick kub
เมื่อ 13 ปีที่แล้ว

คอร์ดเพลง คนเลวที่รักเธอ

0 | 0
โดย GTO
เมื่อ 13 ปีที่แล้ว

เนื้อเพลง คนเลวที่รักเธอ - ปนัดดา

ปนัดดา คนเลวที่รักเธอ

Intro???????????

โมโหตัวเอง ที่มาถึงช้าไป
ก็ฉันแค่คนมาทีหลัง
แล้วยังมีสิทธิ์อะไร
ที่ไปทำให้ใครเขาเลิกกัน

* ก็รู้ว่าผิด เธอเป็นของคนอื่น
ก็ของของใครเขาก็รัก
ถ้าเอามาก็ต้องคืน
ก็ฉันเป็นคน คนมีหัวใจ

** จะขอเป็นคนเลวที่รักเธอที่สุด
ถึงใครจะมองแบบไหน
ไม่ขอเป็นคนดีที่รักเธอไม่ได้
ไม่อยากเป็นคนดีที่ไม่มีความสุข

เมื่อฉันรักเธอ ก็รักด้วยหัวใจ
ถ้าฉันรักเธอด้วยสมอง
ก็คงยอมจะจากไป
แล้วทำตามที่ใครเขาพูดกัน

( ซ้ำ * , ** )

solo ????????????
( ซ้ำ ** )
Outro ???????????

Cover เพลงคนเลวที่รักเธอ


ยังไม่มี Cover เพลงนี้

[ ช่วยกันแบ่งปันคลิปเพลงที่คุณเล่นเอง ]

ฟังเพลง คนเลวที่รักเธอ

ลมหนาวและดาวเดือน - ปนัดดา
เมื่อ 12 ปีที่แล้ว
ค้นพบคอร์ด 1 เวอร์ชั่น
สิ้นสุดสักที (Ost. สวรรค์เบี่ยง) - ปนัดดา เรืองวุฒิ
เมื่อ 11 ปีที่แล้ว
ค้นพบคอร์ด 2 เวอร์ชั่น
คนเลวที่รักเธอ - ปนัดดา
เมื่อ 13 ปีที่แล้ว
ค้นพบคอร์ด 10 เวอร์ชั่น
I Do - Rain feat.ปนัดดา
เมื่อ 14 ปีที่แล้ว
ยังไม่มีคอร์ด
ผิดที่เธอ (Ost.A Love To Kill) - ปนัดดา เรืองวุฒิ
เมื่อ 12 ปีที่แล้ว
ค้นพบคอร์ด 2 เวอร์ชั่น
แค่มีเธอ - ปนัดดา เรืองวุฒิ
เมื่อ 9 ปีที่แล้ว
ค้นพบคอร์ด 1 เวอร์ชั่น
ดาวกระดาษ - ปนัดดา
เมื่อ 15 ปีที่แล้ว
ค้นพบคอร์ด 3 เวอร์ชั่น
มีค่าเวลาเธอเหงา - ปนัดดา เรืองวุฒิ
เมื่อ 12 ปีที่แล้ว
ค้นพบคอร์ด 4 เวอร์ชั่น
เปลือก ( ประกอบละครเจ้าสาวกลัวฝน) - ปนัดดา เรืองวุฒิ
เมื่อ 15 ปีที่แล้ว
ค้นพบคอร์ด 4 เวอร์ชั่น
ดอกไม้ในหัวใจ - ปนัดดา
เมื่อ 15 ปีที่แล้ว
ยังไม่มีคอร์ด
อกหักปากแข็ง - ปนัดดา
เมื่อ 12 ปีที่แล้ว
ค้นพบคอร์ด 4 เวอร์ชั่น
ผู้หญิงโง่ๆที่ยอมเธอง่ายๆ - ปนัดดา เรืองวุฒิ
เมื่อ 7 ปีที่แล้ว
ค้นพบคอร์ด 2 เวอร์ชั่น
วันที่ไม่มีเธอ - ปนัดดา เรืองวุฒิ (บานไม่รู้โรย)
เมื่อ 16 ปีที่แล้ว
ยังไม่มีคอร์ด
วันที่ไม่มีเธอ - ปนัดดา เรืองวุฒิ (บานไม่รู้โรย)
เมื่อ 16 ปีที่แล้ว
ยังไม่มีคอร์ด
เพราะเธอหรือเปล่า (Ost. บุษบาท่าเรือ) - ปนัดดา เรืองวุฒิ
เมื่อ 4 ปีที่แล้ว
ยังไม่มีคอร์ด
ต้นไม้ไม่ได้โตในวันเดียว - ปนัดดา
เมื่อ 9 ปีที่แล้ว
ยังไม่มีคอร์ด
ขอแค่คิดถึง - ปนัดดา เรืองวุฒิ
เมื่อ 5 ปีที่แล้ว
ค้นพบคอร์ด 1 เวอร์ชั่น
วอนฟ้า - ปนัดดา เรืองวุฒิ
เมื่อ 5 ปีที่แล้ว
ค้นพบคอร์ด 2 เวอร์ชั่น
ทำไมต้องยอม - ปนัดดา เรืองวุฒิ
เมื่อ 5 ปีที่แล้ว
ค้นพบคอร์ด 1 เวอร์ชั่น
หมดหัวใจ - ปนัดดา เรืองวุฒิ
เมื่อ 5 ปีที่แล้ว
ค้นพบคอร์ด 1 เวอร์ชั่น