คอร์ดเพลง เพียง - SILVERBACK

Version 13
แกะโดย Z
เมื่อ 7 ต.ค.2550,13:39น.
ดู 915 ครั้ง


คอร์ดก็วนๆแบบผู้ตอบคนที่21ถูกแล้ว แต่ให้ลดลงมาครึ่งเสียง ส่วนDmaj7ก็เปลี่ยนเป็นDธรรมดาแต่ใช้เบสเป็นDb

tune to Eb ก็จะได้แบบนี้ (ถ้าตั้งสายEธรรมดาก็เล่นขยับมาทางขวา1ช่อง ก็จะลำบากขึ้น)

Intro
ตอนที่กีต้าเปล่าๆ เล่นจับคอร์ดDbsus2
1Eb-----------0---------------------0-------------------0-----------------0----------
2Bb-------3-----3---3----------3----3---3---------3----3---3-------3---3---3--
3Gb----2----------2----------2---------2---------2---------2-------2-------2-----
4Db--0-------------------------------------------------------------------------------
5Ab-------------------------4--------------------2------------------0---------------
6Eb----------------------------------------------------------------------------------------

ตอนที่มีกลองมาด้วย (พยายามใช้senseเองละกันว่าจังหวะดีดตัวละกี่ครั้ง เพราะอาจจะไม่ถูก) -*-
4Db------------7-7-5-5-5-----------7-7-5-5-5-----------7-7-5-5-5--------------------------
5Ab--5-5-5------------------4-4-4--------------------------------------------------7-7-9-7----
6Eb--------------------------------------------------7-7-7------------------5-5-5----------------


ท่อนที่เข้าเนื้อร้องก็แบบอินโทรเลย
ส่วนท่อนที่ร้องว่า "และจะรอเธอตลอดไป".. จากตรงนี้เล่นแบบนี้
ก็กดคอร์ด Gb / แล้วก็ Ab สลับไปเรื่อย (กดคอร์ดแล้วใส่ลูกเล่นลงไป)
4Db-----------5-4-5---------7-9-7-------------------------------------------
5Ab------5---------------7-------------------------------------------------------------
6Eb------3---------------5----------------------------------
คอร์ดเพลง เพียง

ความคิดเห็นเกี่ยวกับคอร์ดนี้

เวอร์ชั่นทั้งหมดของคอร์ดเพลงนี้

คอร์ดเพลง เพียง

0 | 0
โดย Z
เมื่อ 11 ปีที่แล้ว

คอร์ดเพลง เพียง

0 | 0
โดย MaxMCS
เมื่อ 12 ปีที่แล้ว

คอร์ดเพลง เพียง

0 | 0
โดย SILVERBACK-SILVERBACK
เมื่อ 12 ปีที่แล้ว

คอร์ดเพลง เพียง

0 | 0
โดย y2keny
เมื่อ 12 ปีที่แล้ว

คอร์ดเพลง เพียง

0 | 0
โดย num
เมื่อ 12 ปีที่แล้ว

คอร์ดเพลง เพียง

0 | 0
โดย num
เมื่อ 12 ปีที่แล้ว

คอร์ดเพลง เพียง

0 | 0
โดย num
เมื่อ 12 ปีที่แล้ว

คอร์ดเพลง เพียง

0 | 0
โดย Master King
เมื่อ 13 ปีที่แล้ว

คอร์ดเพลง เพียง

0 | 0
โดย KIT-Silverback
เมื่อ 13 ปีที่แล้ว

คอร์ดเพลง เพียง

0 | 0
โดย อั๋น
เมื่อ 13 ปีที่แล้ว

คอร์ดเพลง เพียง

0 | 0
โดย อั๋น
เมื่อ 13 ปีที่แล้ว

คอร์ดเพลง เพียง

0 | 0
โดย อั๋น
เมื่อ 13 ปีที่แล้ว

คอร์ดเพลง เพียง

0 | 0
โดย อั๋น
เมื่อ 13 ปีที่แล้ว

เนื้อเพลง เพียง - SILVERBACK

SILVRK เพียง

เพียงได้แค่มอง เพียงได้แค่เจอ
เพียงภาพเธออยู่ในหัวใจ
เพียงฉันละเมอ เพียงแค่ฉันฝันไป
เพียงเพราะว่าเธอนั้นไม่สนใจ
คงมีสักวัน ที่เธอนั้นหันมา
สบตาและมาเข้าใจ
ที่ฉันนั้นรอ รอเธอในหัวใจ
และจะรอตลอดไป

* แค่เพียงได้มองตา
บอกความลับข้างใน
ที่ออกมาจากหัวใจ

**รักเธออยู่เสมอไม่เคยจะเปลี่ยนไป
เพราะว่าเธอไม่เหมือนใคร
เธอทำให้ฉันเป็นอย่างนี้
จะรักเธออยู่อย่างนี้ไม่คิดจะเปลี่ยนใจ
แม้ว่าฝันนั้นยังไกล แต่ฉันก็รักเธอ

เพียงแค่สายลม เพียงแค่สองเรา
เพียงแค่อากาศให้เราหายใจ
เพียงแค่ทุกวัน มีกันเสมอไป
แม้ว่ามันเป็นเพียงฝันไป
แค่นี้ก็พอ ที่ฉันนั้นต้องการ
เพียงความรักจากใครสักคน
แม้ฉันต้องทน เธอคนที่ฉันรอ
และจะรอเธอตลอดไป

(ซ้ำ * , ** , ** )

Cover เพลงเพียง


ยังไม่มี Cover เพลงนี้

[ ช่วยกันแบ่งปันคลิปเพลงที่คุณเล่นเอง ]

ฟังเพลง เพียง