คอร์ดเพลง โกรธ - แพนเค้ก (Pancake)

Version 15
แกะโดย *~! Final Rinarity !~*
เมื่อ 24 พ.ค.2550,12:56น.
ดู 2469 ครั้ง

Intro

1-------------------------------------------------------[12]------------------
2------------------------------------------------------------------------------
3-------5/7-5-4-5-----------------5/7-5-4-5-5-------------------------
4---------------------5/7--5-5----------------------------------------------
5------------------------------------------------------------------------------
6-----------------------------------------------------------------------------

Solo

1--10^-10^10-8-7---8-10-8----------7-8--10-8-10/12--10-8-7-7
2--------------------------------------8-10------------------------------------
3-----------------------------------------------------------------------------
4------------------------------------------------------------------------------
5------------------------------------------------------------------------------
6-----------------------------------------------------------------------------

1---8-8-10-10-12-12-13-13-15-15^--------------------------------
2----------------------------------------------------------------------------
3-----------------------------------------------------------------------------
4------------------------------------------------------------------------------
5------------------------------------------------------------------------------
6-----------------------------------------------------------------------------
คอร์ดเพลง โกรธ

ความคิดเห็นเกี่ยวกับคอร์ดนี้

เวอร์ชั่นทั้งหมดของคอร์ดเพลงนี้

คอร์ดเพลง โกรธ

0 | 0
โดย *~! Final Rinarity !~*
เมื่อ 14 ปีที่แล้ว

คอร์ดเพลง โกรธ

0 | 0
โดย timdekzaa
เมื่อ 14 ปีที่แล้ว

คอร์ดเพลง โกรธ

0 | 0
โดย กกก
เมื่อ 14 ปีที่แล้ว

คอร์ดเพลง โกรธ

0 | 0
โดย fu
เมื่อ 14 ปีที่แล้ว

คอร์ดเพลง โกรธ

0 | 0
โดย แก้มป๋อง
เมื่อ 15 ปีที่แล้ว

คอร์ดเพลง โกรธ

0 | 0
โดย ซิมเปิ้ล
เมื่อ 15 ปีที่แล้ว

คอร์ดเพลง โกรธ

0 | 0
โดย Moaza[มือกีต้าร์วงMoza]
เมื่อ 15 ปีที่แล้ว

คอร์ดเพลง โกรธ

0 | 0
โดย Specter Band
เมื่อ 15 ปีที่แล้ว

คอร์ดเพลง โกรธ

0 | 0
โดย nutคุง
เมื่อ 15 ปีที่แล้ว

คอร์ดเพลง โกรธ

0 | 0
โดย โกรธ
เมื่อ 15 ปีที่แล้ว

คอร์ดเพลง โกรธ

0 | 0
โดย MissPlay
เมื่อ 15 ปีที่แล้ว

คอร์ดเพลง โกรธ

0 | 0
โดย ผู้พิชิต
เมื่อ 15 ปีที่แล้ว

คอร์ดเพลง โกรธ

0 | 0
โดย ฝาขวด
เมื่อ 15 ปีที่แล้ว

คอร์ดเพลง โกรธ

0 | 0
โดย tui
เมื่อ 15 ปีที่แล้ว

คอร์ดเพลง โกรธ

0 | 0
โดย tui
เมื่อ 15 ปีที่แล้ว

เนื้อเพลง โกรธ - แพนเค้ก (Pancake)

เอื้อมมือลูบผมเธอเบาๆ ปลอบเธอที่เสียใจ เธอเจ็บมาจากเค้ามากมาย แต่เค้าไม่เคยดูแลไม่รักเธอ

* ก็เธอที่แสนดี ไม่ควรต้องมีน้ำตา ไม่อยากไห้เป็นอย่างนี้.........

** มันโกรธที่ทำอะไร ไห้เธอไม่ได้เลย มันเจ็บที่ยังต้องมอง ดุเธอ นั่งเสียใจ

แค่น้ำตาหยดเดียวที่มีจากเธอ ก็มากไป แต่โกรธซักเพียงใด....( เป็นได้แค่คนปลอบใจ )

ลืมคนที่รักเธอจริงใจ แต่เธอไม่รุ้เลย คอยปลอบเธอคนนี้อย่างเคย คือฉันคนเดิมที่เธอไม่รักกัน

( ซ้ำ. * ** )

( ซ้ำ. **/ ** )

ก็ได้แค่เพียงปลอบใจ

เพราะมากคร๊าบบบบบบบบ แพนเค้กสู้ๆ

Cover เพลงโกรธ


ยังไม่มี Cover เพลงนี้

[ ช่วยกันแบ่งปันคลิปเพลงที่คุณเล่นเอง ]

ฟังเพลง โกรธ

ใจเย็น - แพนเค้ก (Pancake)
เมื่อ 15 ปีที่แล้ว
ค้นพบคอร์ด 18 เวอร์ชั่น
ขาดใจ - แพนเค้ก (Pancake)
เมื่อ 15 ปีที่แล้ว
ค้นพบคอร์ด 35 เวอร์ชั่น
อยากจับมือเธอมาวางไว้ - แพนเค้ก (Pancake pancake)
เมื่อ 14 ปีที่แล้ว
ค้นพบคอร์ด 26 เวอร์ชั่น
ก๋วยเตี๋ยวหน้าใสกับใจโทรมๆ - แพนเค้ก (Pancake)
เมื่อ 15 ปีที่แล้ว
ค้นพบคอร์ด 19 เวอร์ชั่น
เกลียดเพลงรัก - แพนเค้ก (Pancake)
เมื่อ 12 ปีที่แล้ว
ค้นพบคอร์ด 1 เวอร์ชั่น
อยากค้นใจเธอ - เวียร์ แพนเค้ก (เตวิชญ์ รฎา)
เมื่อ 15 ปีที่แล้ว
ค้นพบคอร์ด 4 เวอร์ชั่น
เศษหนึ่งส่วนเกิน - แพนเค้ก Pancake
เมื่อ 13 ปีที่แล้ว
ยังไม่มีคอร์ด
วันแห่งความรัก - แพนเค้ก(Pancake)
เมื่อ 14 ปีที่แล้ว
ค้นพบคอร์ด 22 เวอร์ชั่น
โกรธ - แพนเค้ก (Pancake)
เมื่อ 15 ปีที่แล้ว
ค้นพบคอร์ด 16 เวอร์ชั่น
ความคิดถึงไม่พึ่งปาฏิหาริย์ - แพนเค้ก (Pancake)
เมื่อ 11 ปีที่แล้ว
ยังไม่มีคอร์ด
คำตอบในใจเธอ - แพนเค้ก-เพลงประกอบละครพลิกดินสู่ดาว
เมื่อ 15 ปีที่แล้ว
ค้นพบคอร์ด 4 เวอร์ชั่น
วันแห่งความรัก - แพนเค้ก (Pancake)
เมื่อ 14 ปีที่แล้ว
ค้นพบคอร์ด 12 เวอร์ชั่น
นางร้าย - แพนเค้ก (Pancake)
เมื่อ 13 ปีที่แล้ว
ยังไม่มีคอร์ด
วันแห่งความรัก - แพนเค้ก (Pancake)
เมื่อ 14 ปีที่แล้ว
ค้นพบคอร์ด 4 เวอร์ชั่น
ขอบคุณที่โทรมา - แพนเค้ก (Pancake)
เมื่อ 15 ปีที่แล้ว
ค้นพบคอร์ด 1 เวอร์ชั่น
ใจคนรอ - แพนเค้ก เขมนิจ
เมื่อ 12 ปีที่แล้ว
ยังไม่มีคอร์ด
จิงใจไม่จิงจัง - แพนเค้ก (Pancake pancake)
เมื่อ 14 ปีที่แล้ว
ค้นพบคอร์ด 9 เวอร์ชั่น
ตั้งแต่ต้นจนเจ็บ - แพนเค้ก(Pancake)
เมื่อ 13 ปีที่แล้ว
ค้นพบคอร์ด 1 เวอร์ชั่น
จริงใจไม่จริงจัง - แพนเค้ก (Pancake)
เมื่อ 14 ปีที่แล้ว
ค้นพบคอร์ด 42 เวอร์ชั่น
สักวันเราจะเป็นเพื่อนกันได้ - แพนเค้ก (Pancake)
เมื่อ 13 ปีที่แล้ว
ยังไม่มีคอร์ด