คอร์ดเพลง OOH - ปาล์มมี่ อีฟ ปานเจริญ (Palmy)

Version 7
แกะโดย maoemo
เมื่อ 28 ม.ค.2550,11:30น.
ดู 2180 ครั้ง

ผมว่ามันน่าจะเปนอย่างงี้นะ ก็เขียน TAB ไม่ค่อยถูก ต้องไปฟังสำเนียงเอาเอง
ท่อนsolo

6>--13/1--1-1-3-4-5--------------------------------------( / = Slide)
5>------------------------3------------------------------------
4>---------------------------2-3---------------------------------
3>-------------------------------------4/5----------2--------
2>-------------------------------------------8/5-------6/3---

6>--1--1-1---------------------------------------------------
5>-----------3-4-5------------------------------------------
4>-------------------3--3/8--10---------------------------
3>----------------------------------7-10----------------------
2>-----------------------------------------10/11p10--8/--

6>------1--1-1-3-4-5--------------------------------------------------------
5>------------------------3------------------------------------------------------
4>---------------------------2-3---3/10------------------------------------------
3>------------------------------------------7-10-----------------------------10-- (Bend1/2=
2>--------------------------------------------------10((bend1/2))10-8-----8-ดันสายไปครึ่งเสียง)

4>--------------------------------------------------------------- 10----------
3>---------------------------10-6----------------------------------------------
2>--10(bend1/2)10-8------------10(bend1/2)10-8--------------

4>------------------------------------10-8-8-7-8-8--
3>--------10-9-(9bend1/2) ------------------------
2>--10-8-------------------------------------------------

4>--
3>---------------------10-7--6-5-6-7-10-------------------<5>
2>--11--10h11--8------------------------10-6h8p6-----<6> <--(คอร์ด F )
1>---------------------------------------------------------------<5>
จบแระ

แต่
ยังมีอีกท่อนที่เบสไม่เล่นอ่ะ

6>-------8-9-10-------------------8-9-10-
5>--8-------------8---------------------------
4>-------------------10-10-8-7------------10
3>-------------------------------------------------12(bend1)12

4>--10-12-----12-----------------------------------
3>-----------10-----10h12--------------------------
2>-------------------------------6-7(bend1)---6--

2>--<16(Bend1)>--<16(Bend1)>--<16(Bend1)>
1>--<13 >--<13 >--<13 >

3>--<15(Bend1)>--<15(Bend1)>--<15(Bend1)>--<15(Bend1)>
2>--<13 >--<13 >--<13 >--<13 >

2ท่อนล่างนี่ดีด2สายพร้อมกันนะ ก็ยากพอสมควร ถ้าดีดได้มันจะเป็นเสียงที่สะใจมั่กๆ
คอร์ดเพลง OOH

ความคิดเห็นเกี่ยวกับคอร์ดนี้

เนื้อเพลง OOH - ปาล์มมี่ อีฟ ปานเจริญ (Palmy)

เจอะ เจอะอีกแล้ว ที่มาลบมากวนหัวใจ
จะไปไหนเจอใครมากมาย ทำไมมันมองหาแต่เธอ

ไม่ว่าอยู่ อยู่ที่ไหน ใจดวงนี้ยังคงละเมอ
หลับตาฝันก็ยังพบเธอ ก็มีแต่เธอ

[*]ฉันเป็นอะไรไม่รู้ ยั้งใจไม่ค่อยอยู่
OOH แปลกจริงๆ OOH คิดถึงเธออีกแล้ว แปลกจริง คิดถึงเธอจัง

เรื่องอื่นไม่ค่อยสน ไม่อยากรู้เรื่องทั่วไป อยากจะรู้เรื่องเธอนั่นไง จะทำอย่างไร โอะ โอ

[*]
Solo
[*,*]

OOH คิดถึงเธออีกแล้ว แปลกจริงคิดถึงเธอจัง

Cover เพลงOOH


ยังไม่มี Cover เพลงนี้

[ ช่วยกันแบ่งปันคลิปเพลงที่คุณเล่นเอง ]

ฟังเพลง OOH

ร้องไห้ง่ายๆกับเรื่องเดิมๆ - ปาล์มมี่ อีฟ ปานเจริญ (Palmy)
เมื่อ 12 ปีที่แล้ว
ค้นพบคอร์ด 4 เวอร์ชั่น
tiktok - ปาล์มมี่ อีฟ ปานเจริญ (Palmy)
เมื่อ 12 ปีที่แล้ว
ค้นพบคอร์ด 5 เวอร์ชั่น
OOH - ปาล์มมี่ อีฟ ปานเจริญ (Palmy)
เมื่อ 12 ปีที่แล้ว
ค้นพบคอร์ด 7 เวอร์ชั่น
นาฬิกาเรือนเก่า - ปาล์มมี่ อีฟ ปานเจริญ
เมื่อ 5 ปีที่แล้ว
ค้นพบคอร์ด 2 เวอร์ชั่น
อยากร้องดังๆ - ปาล์มมี่ อีฟ ปานเจริญ
เมื่อ 5 ปีที่แล้ว
ค้นพบคอร์ด 1 เวอร์ชั่น
ปล่อย (ปาล์มมี่) - ปาล์มมี่ อีฟ ปานเจริญ
เมื่อ 5 ปีที่แล้ว
ค้นพบคอร์ด 1 เวอร์ชั่น
TICK TOCK - ปาล์มมี่ อีฟ ปานเจริญ
เมื่อ 5 ปีที่แล้ว
ค้นพบคอร์ด 2 เวอร์ชั่น
กา กา กา - ปาล์มมี่ อีฟ ปานเจริญ
เมื่อ 5 ปีที่แล้ว
ค้นพบคอร์ด 1 เวอร์ชั่น
อยากหยุดเวลา - ปาล์มมี่ อีฟ ปานเจริญ
เมื่อ 5 ปีที่แล้ว
ค้นพบคอร์ด 1 เวอร์ชั่น
พื้นที่ส่วนตัว - ปาล์มมี่ อีฟ ปานเจริญ
เมื่อ 5 ปีที่แล้ว
ค้นพบคอร์ด 1 เวอร์ชั่น
เขาลืม - ปาล์มมี่ อีฟ ปานเจริญ
เมื่อ 5 ปีที่แล้ว
ค้นพบคอร์ด 1 เวอร์ชั่น
ฝันดีแค่ไม่กี่คืน - ปาล์มมี่ อีฟ ปานเจริญ
เมื่อ 5 ปีที่แล้ว
ค้นพบคอร์ด 1 เวอร์ชั่น
Ooh!!! - ปาล์มมี่ อีฟ ปานเจริญ
เมื่อ 5 ปีที่แล้ว
ค้นพบคอร์ด 1 เวอร์ชั่น
ฟ้าส่งฉันมา - ปาล์มมี่ อีฟ ปานเจริญ
เมื่อ 5 ปีที่แล้ว
ค้นพบคอร์ด 1 เวอร์ชั่น
แสนสบาย - ปาล์มมี่ อีฟ ปานเจริญ
เมื่อ 5 ปีที่แล้ว
ค้นพบคอร์ด 1 เวอร์ชั่น
หนึ่งนาที - ปาล์มมี่ อีฟ ปานเจริญ
เมื่อ 5 ปีที่แล้ว
ค้นพบคอร์ด 1 เวอร์ชั่น
ร้องไห้ง่ายง่ายกับเรื่องเดิมเดิม - ปาล์มมี่ อีฟ ปานเจริญ
เมื่อ 5 ปีที่แล้ว
ค้นพบคอร์ด 1 เวอร์ชั่น
ไม่มีใครโชคร้ายตลอด - ปาล์มมี่ อีฟ ปานเจริญ
เมื่อ 5 ปีที่แล้ว
ค้นพบคอร์ด 1 เวอร์ชั่น
ไม่มีคำจำกัดความ - ปาล์มมี่ อีฟ ปานเจริญ
เมื่อ 5 ปีที่แล้ว
ค้นพบคอร์ด 1 เวอร์ชั่น