คอร์ดเพลง ทุกสิ่งที่มี - เซลล์(cells)

Version 8
แกะโดย คนเมืองกาญ
เมื่อ 22 ก.ย.2550,13:08น.
ดู 1461 ครั้ง


ขอแก้จากอันบนครับ
1)----------------------------------------------------
2)---------------------------------------------------
3)------------------12h14-12-------------------------------
4)---/10-10-12---------------10h12-10-10----12h14-12---
5)---------------------------------------------------12------------

1)--------------------------------------------
2)------------------------------13h15-13-13---15h17-15-----------
3)----------------12h14-12------------------14------------
4)--/10-10-12--------------------------------------------
5)--------------------------------------------------

1)-/15-15h17-15---------15h19h20---------/13-12-15---13-12-15-15--17-17-19-19<--
2)--------------------13-13---------------13-13h----
3)--------------------------------------------
4)------------------------------------------
5)-------------------------------------------
คอร์ดเพลง ทุกสิ่งที่มี

ความคิดเห็นเกี่ยวกับคอร์ดนี้

เวอร์ชั่นทั้งหมดของคอร์ดเพลงนี้

เนื้อเพลง ทุกสิ่งที่มี - เซลล์(cells)

ถึงฮักของเฮาจะต้องจบลง หรือเจ้านั้นจะพบคนใหม่
อาจจะลืมความฮักของเฮาจนหมด ออกไปจากใจ
ถึงหนทางจะทำให้ต้องห่างหรือขอบฟ้าจะทำให้ต้องไกล
หากแม้เวลาจะเปลี่ยนให้เจ้านั้นหมดใจ
*ก็ยังบ่ฮู้...หากเราพบจะเป็นอย่างใด
แต่สิ่งที่ฮู้...คือฮักเจ้าหมดใจ
**เมื่อในวันนี้สองเฮา นั้นยังยืนอยู่ข้างกัน
และยังคงใส้หัวใจและลมหายใจเดียวกัน
จะทำทุกๆอย่างให้เจ้านั้นภูมิใจ
ที่เคยได้ฮักกับคนๆนี้ ถึงแม้สุดท้ายสองเฮาต้องห่าง
จากกันไปไกลแสนไกล ยังน้อยก็บ่เสียใจที่เคยฮักเจ้าจนหมดใจ
จนถึงวันนี้
แม้วันต่อไปจะไม่พบกันหรือความผูกพันเคยมีต้องจืดจาง
หากแม้ความตายต้องแบ่งให้ต้องเดินคนละทาง

(ซ้ำ*,**)

เมื่อในวันนี้สองเฮา นั้นยังยืนอยู่ข้างกัน
และยังคงใส้หัวใจและลมหายใจเดียวกัน
จะทำทุกๆอย่างให้เจ้านั้นภูมิใจ
ที่เคยได้ฮักกับคนๆนี้ ถึงแม้สุดท้ายสองเฮาต้องห่าง
จากกันไปไกลแสนไกล ยังน้อยก็บ่เสียใจที่เคยฮักเจ้าจนหมดใจ
จนถึงวันนี้

Cover เพลงทุกสิ่งที่มี


ยังไม่มี Cover เพลงนี้

[ ช่วยกันแบ่งปันคลิปเพลงที่คุณเล่นเอง ]

ฟังเพลง ทุกสิ่งที่มี

หวาน - เซลล์ ( Cells )
เมื่อ 12 ปีที่แล้ว
ค้นพบคอร์ด 40 เวอร์ชั่น
โง่เพราะฮัก(รัก) - เซลล์ (Cells)
เมื่อ 13 ปีที่แล้ว
ค้นพบคอร์ด 3 เวอร์ชั่น
ลึก ลึก - เซลล์ (Cells)
เมื่อ 12 ปีที่แล้ว
ค้นพบคอร์ด 23 เวอร์ชั่น
ลึกลึก - เซลล์ ลาว (Cells) = เซลล์วิทยาศาสตร์อะ
เมื่อ 12 ปีที่แล้ว
ค้นพบคอร์ด 5 เวอร์ชั่น
ทุกสิ่งที่มี - เซลล์(cells)
เมื่อ 12 ปีที่แล้ว
ค้นพบคอร์ด 8 เวอร์ชั่น
มีฉันมีเธอ - เดธ ออฟ อะ เซลล์ แมน
เมื่อ 15 ปีที่แล้ว
ค้นพบคอร์ด 2 เวอร์ชั่น
เรือชูชีพ - อวสานเซลล์แมน
เมื่อ 14 ปีที่แล้ว
ค้นพบคอร์ด 4 เวอร์ชั่น
เหม่อ - เดธ ออฟ อะ เซลล์ แมน
เมื่อ 15 ปีที่แล้ว
ค้นพบคอร์ด 2 เวอร์ชั่น
คนสะหวันอยากมีแฟน (เพราะมาก) - เซลล์ ลาว (Cells) = เซลล์วิทยาศาสตร์อะ
เมื่อ 12 ปีที่แล้ว
ค้นพบคอร์ด 2 เวอร์ชั่น
บ่อยากผิดกับความจริง - เซลล์ (Cells)
เมื่อ 12 ปีที่แล้ว
ยังไม่มีคอร์ด
ขอบใจฟ้า - เซลล์ (Cells)
เมื่อ 10 ปีที่แล้ว
ยังไม่มีคอร์ด
ดียังบ่พอ - Cells เซลล์
เมื่อ 12 ปีที่แล้ว
ยังไม่มีคอร์ด
ความฮู้สึกบอก - เซลล์ (Cells)
เมื่อ 6 ปีที่แล้ว
ค้นพบคอร์ด 1 เวอร์ชั่น
เลิกเลิก (ลึกลึก) - เซลล์ (Cells)
เมื่อ 6 ปีที่แล้ว
ค้นพบคอร์ด 1 เวอร์ชั่น

คอร์ดเพลงใหม่

21 | 1/0

กอดเสาเถียง - ปรีชา ปัดภัย

คอร์ดโดย สมัครฟรี ไม่เสียค่าใช้จ่าย
เมื่อ 20 ชั่วโมง
17 | 0/0

จีบสาวฉาวเทือน - เจนนี่ - ลิลลี่ ได้หมดถ้าสดชื่น Feat.วู้ดดี้

คอร์ดโดย สมัครฟรี ไม่เสียค่าใช้จ่าย
เมื่อ 21 ชั่วโมง
49 | 1/0

เจ็บหนักวิทยา - เบลล์ นิภาดา

คอร์ดโดย สมัครฟรี ไม่เสียค่าใช้จ่าย
เมื่อ 2 วันก่อน
58 | 0/0

ถ่าเจ้ากลับมา - ป๊อป นพรัตน์

คอร์ดโดย ศิริศักดิ์ ฝ่ายวงค์
เมื่อ 5 วันก่อน
140 | 0/0

Ver.2 มากกว่าฝูงหมา - กางเกง

คอร์ดโดย สไมล์ เดวิลล์ ปีศาจอารมณ์ดี
เมื่อ 8 วันก่อน
60 | 1/0

Ver.5 ล้า - อะเลิทร์(Alert)

คอร์ดโดย Naternet Bassist
เมื่อ 8 วันก่อน
103 | 0/0

Ver.2 ผีบ้าถามทาง - บิ๊กวัน กันทรลักษ์

คอร์ดโดย สไมล์ เดวิลล์ ปีศาจอารมณ์ดี
เมื่อ 8 วันก่อน