คอร์ดเพลง ยืมเขามาลา - แอมไฟน์

Version 8
แกะโดย นิรนาม777
เมื่อ 21 ก.ย.2550,15:34น.
ดู 2034 ครั้ง


Intro ยืมเขามาลา by Tau_SafiausZ ( Guitar of InStEp )

E-----------1---------------------------------------l------------1---------------------------------
B-----------------------------------------4---------l-----------------------------------------4----
G------3------3------2--3--2------0------3-----l--------3------3------2--3--2-----0------3
D--3--------------3--------------1----------------l----3--------------3-------------1-----------
A---------------------------------------------------l-----------------------------------------------
E---------------------------------------------------l-----------------------------------------------

E-------------------------------------------------------------------------------------------------------------
B--18^---------------------------------------------------------18^------------18^----------------------
G--------15---14----------------------------------------------------15--14-------------15-14-15-14
D-------------------15--------15--~17--15------15----------------------------------------------------
A-------------------------17---------------------17------17-------------------------17------------------
E-------------------------------------------------------------------------------------------------------------

Outro

E-------------------------------------------------------------------------------------------------------------
B--18^---------------------------------------------------------18^------------18^----------------------
G--------15---14----------------------------------------------------15--14-------------15-14-15-14
D-------------------15--------15--~17--15------15----------------------------------------------------
A-------------------------17---------------------17------17-------------------------17------------------
E-------------------------------------------------------------------------------------------------------------


ผมเล่นแบบไม่ดรอปสายน้ะครับ ถ้าใครดรอปก็ปรับให้เป็นปกติ เน้ออ น่าจะถูกล่ะ เพราะวงผมก็เล่นเพลงนี้คับ
คอร์ดเพลง ยืมเขามาลา

ความคิดเห็นเกี่ยวกับคอร์ดนี้

เวอร์ชั่นทั้งหมดของคอร์ดเพลงนี้

เนื้อเพลง ยืมเขามาลา - แอมไฟน์

ยืมเขาได้รึเปล่า ผู้ชาย 1 คนนั้น ที่เขาเคยเป็นของชั้นมาก่อน
เวลาแค่ไม่นาน เธอคงไม่เดือดร้อน ไม่คิดจะยื้อจะรั้งเอาไว้

*ก้อเราเคยรักกันมาดีดี แต่วันนี้โดนเธอนั้นแย่งไป
ของรักที่เสียไปก้อต้องอาลัยเป็นธรรมดา

**แค่ยืมมาลาหน่อยได้มั้ยอยากกอดกับเขาครั้งสุดท้าย
ไม่ขออะไรมากมาย ผู้ ญ ด้วยกันน่าจะเข้าใจ แค่ยืมมามองตาให้ซึ้ง
แล้วจะส่งคืนทั้งตัวและหัวใจอยากได้ก้อเอาไป ถ้าเธอนั้นดูแลได้ดีกว่าชั้น

เจ็บมั้ยอย่าถามเลย ไม่จำเป็นต้องรู้ ฝากเขาให้เธอช่วยดูก้อพอ
ใช่เลยว่าต้องการ เมื่อเธอกล้าด้านขอ อย่างน้อยก้อคิดว่ายืมกันใช้

(ซ้ำ * , ** )

(ซ้ำ **)

Cover เพลงยืมเขามาลา


ยังไม่มี Cover เพลงนี้

[ ช่วยกันแบ่งปันคลิปเพลงที่คุณเล่นเอง ]

ฟังเพลง ยืมเขามาลา

มารักทำไมตอนนี้ - แอมไฟน์
เมื่อ 13 ปีที่แล้ว
ค้นพบคอร์ด 12 เวอร์ชั่น
ขาดความอบอุ่น - แอมไฟน์ (Am fine)
เมื่อ 14 ปีที่แล้ว
ค้นพบคอร์ด 7 เวอร์ชั่น
ผู้หญิงใจง่าย - แอมไฟน์ (Am fine)
เมื่อ 14 ปีที่แล้ว
ค้นพบคอร์ด 9 เวอร์ชั่น
ยืมเขามาลา - แอมไฟน์
เมื่อ 12 ปีที่แล้ว
ค้นพบคอร์ด 9 เวอร์ชั่น
แฟนเก่า - แอมไฟน์ (Am Fine)
เมื่อ 10 ปีที่แล้ว
ค้นพบคอร์ด 2 เวอร์ชั่น
ข้อความ - แอมไฟน์
เมื่อ 12 ปีที่แล้ว
ค้นพบคอร์ด 9 เวอร์ชั่น
ไม่เหงาไม่มาใช่ไหม - แอมไฟน์ (Am Fine)
เมื่อ 12 ปีที่แล้ว
ค้นพบคอร์ด 13 เวอร์ชั่น
หลอกใช้ - ฝ้าย แอมไฟน์ (Amfine)
เมื่อ 8 ปีที่แล้ว
ค้นพบคอร์ด 2 เวอร์ชั่น
น้ำตาจะไหล - แอมไฟน์ (Amfine)
เมื่อ 8 ปีที่แล้ว
ค้นพบคอร์ด 2 เวอร์ชั่น
ตกหลุมรัก - แอมไฟน์
เมื่อ 12 ปีที่แล้ว
ค้นพบคอร์ด 8 เวอร์ชั่น
มาก่อนเจ็บก่อน - แอมไฟน์
เมื่อ 10 ปีที่แล้ว
ค้นพบคอร์ด 2 เวอร์ชั่น
คนไม่สวยผิดเสมอ - แอมไฟน์ (Am Fine)
เมื่อ 7 ปีที่แล้ว
ยังไม่มีคอร์ด
มั่นใจในรัก ไม่มั่นใจในเธอ - แอมไฟน์
เมื่อ 12 ปีที่แล้ว
ค้นพบคอร์ด 3 เวอร์ชั่น
ใกล้ตา - แอมไฟน์
เมื่อ 12 ปีที่แล้ว
ค้นพบคอร์ด 3 เวอร์ชั่น
ใจไม่แข็งเหมือนปาก - แอมไฟน์ (Amfine)
เมื่อ 8 ปีที่แล้ว
ค้นพบคอร์ด 2 เวอร์ชั่น
มั่นใจในรัก ไม่มั่นใจในเธอ - แอมไฟน์
เมื่อ 12 ปีที่แล้ว
ค้นพบคอร์ด 1 เวอร์ชั่น
ความเงียบแทนคำตอบ - แอมไฟน์ (Amfine)
เมื่อ 8 ปีที่แล้ว
ค้นพบคอร์ด 1 เวอร์ชั่น
รักจริงมีไหม (Ost. แม้เลือกเกิดได้) - ฝ้าย แอมไฟน์ (Amfine)
เมื่อ 4 ปีที่แล้ว
ค้นพบคอร์ด 1 เวอร์ชั่น
รับไว้อย่างเดียว - แอมไฟน์ (Am Fine)
เมื่อ 9 ปีที่แล้ว
ยังไม่มีคอร์ด
ไม่เหงา ไม่มาใช่มั้ย - แอมไฟน์(am five)
เมื่อ 11 ปีที่แล้ว
ยังไม่มีคอร์ด