คอร์ดเพลง เพราะว่ารัก - เรสโตสเป๊ก

Version 1
แกะโดย armchairs
เมื่อ 18 ก.ค.2550,13:11น.
ดู 33910 ครั้ง
-----------6--------|---3---------3--------|-3-----------3--------|
5|--------------------------------|------------------------|------------------------|
6|--------------------------------|------------------------|------------------------|
ดีดขึ้นในคอร์ดแรก

1|----3---------------------------|-----------------------|------------------------|
2|----3----------4--------4-----|---------1------1-----|-------1--------1-----|
3|----5-------0-----0-------0--|------0----0-------0-|----3-----3--------3--|
4|----5----6-----------6--------|---3---------3--------|-3-----------3--------|
5|--------------------------------|------------------------|------------------------|
6|--------------------------------|------------------------|------------------------|

1|-----------------------------------|-----------------------------|
2|-----------------------------------|-----------------------------|
3|-----5---5--5----0--1---0-----|--------------5--5--5--5--|
4|-----5---5--5---------3---1--3|--0--1-0----5--5--5--5--|
5|-----3---3--3--------------------|--------------3--3--3--3--|
6|-----------------------------------|-----------------------------|
ครูดปิ๊กไปข้างหลังยาวๆๆๆ เวลาดีดคอร์ดให้อุดสาย

1|----------------------------|-----------------------------|
2|----------------------------|-----------------------------|
3|---------0--1---0--------|------------------------------|
4|--------------3---1--3---|--0--1-0----6--6--6--6--|
5|---------------------------|---------------6--6--6--6--|
6|---------------------------|---------------4--4--4--4--|
เวลาดีดคอร์ดให้อุดสาย

1|-------------------------|--------------------------------|------------------|
2|-------------------------|--------------------------------|------------------|
3|---------0--1---0-----|---------------------------------|------------------|
4|--------------3---1--3|--0--1-0-------6--6--6--6--|---5--5--5--5--|
5|-------------------------|-----------------6--6--6--6--|---5--5--5--5--|
6|-------------------------|-----------------3--3--3--3--|---3--3--3--3--|
เวลาดีดคอร์ดให้อุดสาย

1|--------------------|---------------|-------------------|-----------------|
2|--------------------|---------------|-------------------|-----------------|
3|-----5---5--5----|------5--5----|-----5---5--5----|------5--5--5-|
4|-----5---5--5----|------5--5----|-----5---5--5----|------5--5--5-|
5|-----3---3--3----|------3--3----|-----3---3--3----|------3--3--3-|
6|-------------------|----------------|--------------------|----------------|
ซึ่งวันนี้ ความเป็นจริงที่โหดร้าย
1|-------------------|----------------|-------------------|-----------------|----------------|
2|-------------------|----------------|-------------------|-----------------|----------------|
3|-------------------|----------------|-------------------|-----------------|----------------|
4|-----6--6--6-----|---6--6-------|-----6--6--6-----|---6--6---6---|---6--6---6---|
5|-----6--6--6-----|---6--6-------|-----6--6--6-----|---6--6---6---|---6--6---6---|
6|-----4--4--4-----|---4--4-------|-----4--4--4-----|---4--4---4---|---3--3---3---|
โลกมันไม่เคยมีรักแท้ ซำวน

1|--------------------|-------------------|-------------------|--------------------|-------------------|
2|--------------------|-------------------|-------------------|--------------------|-------------------|
3|-----5---5--5----|-----3--3--3-----|-------------------|--------------------|-------------------|
4|-----5---5--5----|-----3--3--3-----|-----3--3--3-----|-----6--6--6-----|-----6--6--6-----|
5|-----3---3--3----|-----1--1--1-----|-----3--3--3-----|-----6--6--6-----|-----6--6--6-----|
6|-------------------|--------------------|-----1--1--1-----|-----4--4--4-----|-----3--3--3-----|ซ้ำๆวนไป


Lyrics: เพราะว่ารัก
Artist: Retrospect
Album: Unleashed

A G Em F#m
เพราะว่ารัก เพราะว่าฝัน ฉันก็เลยทุ่มเทหมดใจทุกที
Bm G Bm G Bm
แล้วสุดท้าย ที่ว่ารัก ไม่ทันไรก็เป็นเหมือนเก่า หลอกลวงกันทั้งนั้น

Instru : G/Bm/G/D

F#m Bm G
ถึงวันนี้ความเป็นจริงที่โหดร้าย โลกมันไม่เคยมีรักแท้... ไม่มีจริง
A B G
คำว่ารัก คนที่เคยพร่ำบอกไว้ ไม่ทันไรก็ลืมทุกสิ่ง

F#m Bm A C
* หลอกลวงกันทั้งนั้น จะรักทำไม ให้มันทำลายใจเราเอง
F#m Bm A C G
หลอกลวงกันทั้งนั้น ให้ฉันตายใจ ฉันพอแล้วพอที ไม่มีที่จริงใจ

Bm G D
** เพราะรักเธอ เพราะไว้ใจ เธอมากไป วันนี้จึงเจ็บช้ำ
Bm G D G
ยิ่งรักจริง ฉันยิ่งช้ำใจทรมาน มันทรมานเจียนตาย

A F#m G
นับจากนี้ เตือนตัวเองว่าพอแล้ว รักที่มีแต่ทุ่มเทใจ ให้ใครๆ
B F#m G
นับจากนี้ เตือนตัวเองให้จำไว้ ไว้ใจใครหมดใจไม่ได้

ซ้ำ(*,**)

Solo : D/Bm/F#m/G/Em/Bm/F#m/Gm

Gm Bm G F#m
พอแล้ว จะไม่ไว้ใจ พอแล้ว จะไม่รักใคร

Instru : G/G/Bm/Bm (2time)

Gm Bm G F#m
เพราะรักเธอ เพราะไว้ใจ รักเธอ ยิ่งเสียใจ

//เน้น เรื่องอุดสายด้วยน่ะคับ

คอร์ดเพลง เพราะว่ารัก

ความคิดเห็นเกี่ยวกับคอร์ดนี้

เนื้อเพลง เพราะว่ารัก - เรสโตสเป๊ก

|||

5||||

6||||

ดีดขึ้นในคอร์ดแรก


1||||

2||||

3||||

4||||

5||||

6||||


1|||

2|||

3|||

4|3||

5|||

6|||

ครูดปิ๊กไปข้างหลังยาวๆๆๆ เวลาดีดคอร์ดให้อุดสาย


1|||

2|||

3|||

4|||

5|||

6|||

เวลาดีดคอร์ดให้อุดสาย


1||||

2||||

3||||

4|3|||

5||||

6||||

เวลาดีดคอร์ดให้อุดสาย


1|||||

2|||||

3|||||

4|||||

5|||||

6|||||

ซึ่งวันนี้ ความเป็นจริงที่โหดร้าย

1||||||

2||||||

3||||||

4||||||

5||||||

6||||||

โลกมันไม่เคยมีรักแท้ ซำวน


1||||||

2||||||

3||||||

4||||||

5||||||

6||||||ซ้ำๆวนไป




Lyrics: เพราะว่ารัก

rtist: Retrospect

lbum: Unleashed




เพราะว่ารัก เพราะว่าฝัน ฉันก็เลยทุ่มเทหมดใจทุกที



แล้วสุดท้าย ที่ว่ารัก ไม่ทันไรก็เป็นเหมือนเก่า หลอกลวงกันทั้งนั้น


Instru :




ถึงวันนี้ความเป็นจริงที่โหดร้าย โลกมันไม่เคยมีรักแท้... ไม่มีจริง



คำว่ารัก คนที่เคยพร่ำบอกไว้ ไม่ทันไรก็ลืมทุกสิ่ง




* หลอกลวงกันทั้งนั้น จะรักทำไม ให้มันทำลายใจเราเอง



หลอกลวงกันทั้งนั้น ให้ฉันตายใจ ฉันพอแล้วพอที ไม่มีที่จริงใจ




** เพราะรักเธอ เพราะไว้ใจ เธอมากไป วันนี้จึงเจ็บช้ำ



ยิ่งรักจริง ฉันยิ่งช้ำใจทรมาน มันทรมานเจียนตาย




นับจากนี้ เตือนตัวเองว่าพอแล้ว รักที่มีแต่ทุ่มเทใจ ให้ใครๆ



นับจากนี้ เตือนตัวเองให้จำไว้ ไว้ใจใครหมดใจไม่ได้


ซ้ำ(*,**)


Solo :




พอแล้ว จะไม่ไว้ใจ พอแล้ว จะไม่รักใคร


Instru : (2time)




เพราะรักเธอ เพราะไว้ใจ รักเธอ ยิ่งเสียใจ



//เน้น เรื่องอุดสายด้วยน่ะคับ


Cover เพลงเพราะว่ารัก


ยังไม่มี Cover เพลงนี้

[ ช่วยกันแบ่งปันคลิปเพลงที่คุณเล่นเอง ]

ฟังเพลง เพราะว่ารัก